  0
SECTION
  2
HEADER
  9
$ACADVER
  1
AC1021
  9
$ACADMAINTVER
 70
    25
  9
$DWGCODEPAGE
  3
ANSI_1252
  9
$LASTSAVEDBY
  1
glen
  9
$INSBASE
 10
0.0
 20
0.0
 30
0.0
  9
$EXTMIN
 10
994.2044898611646
 20
-184.7568643644256
 30
0.0
  9
$EXTMAX
 10
2318.498223919803
 20
141.8294710124817
 30
0.0
  9
$LIMMIN
 10
0.0
 20
0.0
  9
$LIMMAX
 10
12.0
 20
9.0
  9
$ORTHOMODE
 70
     0
  9
$REGENMODE
 70
     1
  9
$FILLMODE
 70
     1
  9
$QTEXTMODE
 70
     0
  9
$MIRRTEXT
 70
     1
  9
$LTSCALE
 40
1.0
  9
$ATTMODE
 70
     1
  9
$TEXTSIZE
 40
0.2
  9
$TRACEWID
 40
0.05
  9
$TEXTSTYLE
  7
Standard
  9
$CLAYER
  8
Default
  9
$CELTYPE
  6
ByLayer
  9
$CECOLOR
 62
   256
  9
$CELTSCALE
 40
1.0
  9
$DISPSILH
 70
     0
  9
$DIMSCALE
 40
1.0
  9
$DIMASZ
 40
0.18
  9
$DIMEXO
 40
0.0625
  9
$DIMDLI
 40
0.38
  9
$DIMRND
 40
0.0
  9
$DIMDLE
 40
0.0
  9
$DIMEXE
 40
0.18
  9
$DIMTP
 40
0.0
  9
$DIMTM
 40
0.0
  9
$DIMTXT
 40
0.18
  9
$DIMCEN
 40
0.09
  9
$DIMTSZ
 40
0.0
  9
$DIMTOL
 70
     0
  9
$DIMLIM
 70
     0
  9
$DIMTIH
 70
     1
  9
$DIMTOH
 70
     1
  9
$DIMSE1
 70
     0
  9
$DIMSE2
 70
     0
  9
$DIMTAD
 70
     0
  9
$DIMZIN
 70
     0
  9
$DIMBLK
  1

  9
$DIMASO
 70
     1
  9
$DIMSHO
 70
     1
  9
$DIMPOST
  1

  9
$DIMAPOST
  1

  9
$DIMALT
 70
     0
  9
$DIMALTD
 70
     2
  9
$DIMALTF
 40
25.4
  9
$DIMLFAC
 40
1.0
  9
$DIMTOFL
 70
     0
  9
$DIMTVP
 40
0.0
  9
$DIMTIX
 70
     0
  9
$DIMSOXD
 70
     0
  9
$DIMSAH
 70
     0
  9
$DIMBLK1
  1

  9
$DIMBLK2
  1

  9
$DIMSTYLE
  2
STANDARD_ACAD
  9
$DIMCLRD
 70
     0
  9
$DIMCLRE
 70
     0
  9
$DIMCLRT
 70
     0
  9
$DIMTFAC
 40
1.0
  9
$DIMGAP
 40
0.09
  9
$DIMJUST
 70
     0
  9
$DIMSD1
 70
     0
  9
$DIMSD2
 70
     0
  9
$DIMTOLJ
 70
     1
  9
$DIMTZIN
 70
     0
  9
$DIMALTZ
 70
     0
  9
$DIMALTTZ
 70
     0
  9
$DIMUPT
 70
     0
  9
$DIMDEC
 70
     4
  9
$DIMTDEC
 70
     4
  9
$DIMALTU
 70
     2
  9
$DIMALTTD
 70
     2
  9
$DIMTXSTY
  7
Standard
  9
$DIMAUNIT
 70
     0
  9
$DIMADEC
 70
     0
  9
$DIMALTRND
 40
0.0
  9
$DIMAZIN
 70
     0
  9
$DIMDSEP
 70
    46
  9
$DIMATFIT
 70
     3
  9
$DIMFRAC
 70
     0
  9
$DIMLDRBLK
  1

  9
$DIMLUNIT
 70
     2
  9
$DIMLWD
 70
    -2
  9
$DIMLWE
 70
    -2
  9
$DIMTMOVE
 70
     2
  9
$DIMFXL
 40
1.0
  9
$DIMFXLON
 70
     0
  9
$DIMJOGANG
 40
0.7853981633974483
  9
$DIMTFILL
 70
     0
  9
$DIMTFILLCLR
 70
     0
  9
$DIMARCSYM
 70
     0
  9
$DIMLTYPE
  6

  9
$DIMLTEX1
  6

  9
$DIMLTEX2
  6

  9
$LUNITS
 70
     2
  9
$LUPREC
 70
     3
  9
$SKETCHINC
 40
0.1
  9
$FILLETRAD
 40
0.0
  9
$AUNITS
 70
     0
  9
$AUPREC
 70
     0
  9
$MENU
  1
.
  9
$ELEVATION
 40
0.0
  9
$PELEVATION
 40
0.0
  9
$THICKNESS
 40
0.0
  9
$LIMCHECK
 70
     0
  9
$CHAMFERA
 40
0.0
  9
$CHAMFERB
 40
0.0
  9
$CHAMFERC
 40
0.0
  9
$CHAMFERD
 40
0.0
  9
$SKPOLY
 70
     0
  9
$TDCREATE
 40
2459998.387732431
  9
$TDUCREATE
 40
2459998.054399098
  9
$TDUPDATE
 40
2459998.387748878
  9
$TDUUPDATE
 40
2459998.054415544
  9
$TDINDWG
 40
0.0000000116
  9
$TDUSRTIMER
 40
0.0000000116
  9
$USRTIMER
 70
     1
  9
$ANGBASE
 50
0.0
  9
$ANGDIR
 70
     0
  9
$PDMODE
 70
     0
  9
$PDSIZE
 40
0.0
  9
$PLINEWID
 40
0.0
  9
$SPLFRAME
 70
     0
  9
$SPLINETYPE
 70
     6
  9
$SPLINESEGS
 70
     8
  9
$HANDSEED
  5
CF
  9
$SURFTAB1
 70
     6
  9
$SURFTAB2
 70
     6
  9
$SURFTYPE
 70
     6
  9
$SURFU
 70
     6
  9
$SURFV
 70
     6
  9
$UCSBASE
  2

  9
$UCSNAME
  2

  9
$UCSORG
 10
0.0
 20
0.0
 30
0.0
  9
$UCSXDIR
 10
1.0
 20
0.0
 30
0.0
  9
$UCSYDIR
 10
0.0
 20
1.0
 30
0.0
  9
$UCSORTHOREF
  2

  9
$UCSORTHOVIEW
 70
     0
  9
$UCSORGTOP
 10
0.0
 20
0.0
 30
0.0
  9
$UCSORGBOTTOM
 10
0.0
 20
0.0
 30
0.0
  9
$UCSORGLEFT
 10
0.0
 20
0.0
 30
0.0
  9
$UCSORGRIGHT
 10
0.0
 20
0.0
 30
0.0
  9
$UCSORGFRONT
 10
0.0
 20
0.0
 30
0.0
  9
$UCSORGBACK
 10
0.0
 20
0.0
 30
0.0
  9
$PUCSBASE
  2

  9
$PUCSNAME
  2

  9
$PUCSORG
 10
0.0
 20
0.0
 30
0.0
  9
$PUCSXDIR
 10
1.0
 20
0.0
 30
0.0
  9
$PUCSYDIR
 10
0.0
 20
1.0
 30
0.0
  9
$PUCSORTHOREF
  2

  9
$PUCSORTHOVIEW
 70
     0
  9
$PUCSORGTOP
 10
0.0
 20
0.0
 30
0.0
  9
$PUCSORGBOTTOM
 10
0.0
 20
0.0
 30
0.0
  9
$PUCSORGLEFT
 10
0.0
 20
0.0
 30
0.0
  9
$PUCSORGRIGHT
 10
0.0
 20
0.0
 30
0.0
  9
$PUCSORGFRONT
 10
0.0
 20
0.0
 30
0.0
  9
$PUCSORGBACK
 10
0.0
 20
0.0
 30
0.0
  9
$USERI1
 70
     0
  9
$USERI2
 70
     0
  9
$USERI3
 70
     0
  9
$USERI4
 70
     0
  9
$USERI5
 70
     0
  9
$USERR1
 40
0.0
  9
$USERR2
 40
0.0
  9
$USERR3
 40
0.0
  9
$USERR4
 40
0.0
  9
$USERR5
 40
0.0
  9
$WORLDVIEW
 70
     1
  9
$SHADEDGE
 70
     3
  9
$SHADEDIF
 70
    70
  9
$TILEMODE
 70
     1
  9
$MAXACTVP
 70
    64
  9
$PINSBASE
 10
0.0
 20
0.0
 30
0.0
  9
$PLIMCHECK
 70
     0
  9
$PEXTMIN
 10
1.000000000000000E+20
 20
1.000000000000000E+20
 30
1.000000000000000E+20
  9
$PEXTMAX
 10
-1.000000000000000E+20
 20
-1.000000000000000E+20
 30
-1.000000000000000E+20
  9
$PLIMMIN
 10
0.0
 20
0.0
  9
$PLIMMAX
 10
12.0
 20
9.0
  9
$UNITMODE
 70
     0
  9
$VISRETAIN
 70
     1
  9
$PLINEGEN
 70
     0
  9
$PSLTSCALE
 70
     1
  9
$TREEDEPTH
 70
  3020
  9
$CMLSTYLE
  2
Standard
  9
$CMLJUST
 70
     0
  9
$CMLSCALE
 40
1.0
  9
$PROXYGRAPHICS
 70
     1
  9
$MEASUREMENT
 70
     1
  9
$CELWEIGHT
370
    -1
  9
$ENDCAPS
280
     0
  9
$JOINSTYLE
280
     0
  9
$LWDISPLAY
290
     0
  9
$INSUNITS
 70
     4
  9
$HYPERLINKBASE
  1

  9
$STYLESHEET
  1

  9
$XEDIT
290
     1
  9
$CEPSNTYPE
380
     0
  9
$PSTYLEMODE
290
     1
  9
$FINGERPRINTGUID
  2
{225a9888-703a-45fd-b758-9c1a0c0c777b}
  9
$VERSIONGUID
  2
{FAEB1C32-E019-11D5-929B-00C0DF256EC4}
  9
$EXTNAMES
290
     1
  9
$PSVPSCALE
 40
0.0
  9
$OLESTARTUP
290
     0
  9
$SORTENTS
280
   127
  9
$INDEXCTL
280
     0
  9
$HIDETEXT
280
     1
  9
$XCLIPFRAME
290
     0
  9
$HALOGAP
280
     0
  9
$OBSCOLOR
 70
   257
  9
$OBSLTYPE
280
     0
  9
$INTERSECTIONDISPLAY
280
     0
  9
$INTERSECTIONCOLOR
 70
   257
  9
$DIMASSOC
280
     2
  9
$PROJECTNAME
  1

  9
$CAMERADISPLAY
290
     0
  9
$LENSLENGTH
 40
50.0
  9
$CAMERAHEIGHT
 40
0.0
  9
$STEPSPERSEC
 40
2.0
  9
$STEPSIZE
 40
6.0
  9
$3DDWFPREC
 40
2.0
  9
$PSOLWIDTH
 40
0.25
  9
$PSOLHEIGHT
 40
4.0
  9
$LOFTANG1
 40
1.570796326794897
  9
$LOFTANG2
 40
1.570796326794897
  9
$LOFTMAG1
 40
0.0
  9
$LOFTMAG2
 40
0.0
  9
$LOFTPARAM
 70
     7
  9
$LOFTNORMALS
280
     1
  9
$LATITUDE
 40
37.795
  9
$LONGITUDE
 40
-122.394
  9
$NORTHDIRECTION
 40
0.0
  9
$TIMEZONE
 70
 -8000
  9
$LIGHTGLYPHDISPLAY
280
     1
  9
$TILEMODELIGHTSYNCH
280
     1
  9
$CMATERIAL
347
44
  9
$SOLIDHIST
280
     0
  9
$SHOWHIST
280
     1
  9
$DWFFRAME
280
     2
  9
$DGNFRAME
280
     2
  9
$REALWORLDSCALE
290
     1
  9
$INTERFERECOLOR
 62
   256
  9
$CSHADOW
280
     0
  9
$SHADOWPLANELOCATION
 40
0.0
  0
ENDSEC
  0
SECTION
  2
CLASSES
  0
CLASS
  1
ACDBDICTIONARYWDFLT
  2
AcDbDictionaryWithDefault
  3
ObjectDBX Classes
 90
        0
 91
        3
280
     0
281
     0
  0
CLASS
  1
VISUALSTYLE
  2
AcDbVisualStyle
  3
ObjectDBX Classes
 90
     4095
 91
        3
280
     0
281
     0
  0
CLASS
  1
MATERIAL
  2
AcDbMaterial
  3
ObjectDBX Classes
 90
     1153
 91
        3
280
     0
281
     0
  0
CLASS
  1
SCALE
  2
AcDbScale
  3
ObjectDBX Classes
 90
     1153
 91
        3
280
     0
281
     0
  0
CLASS
  1
TABLESTYLE
  2
AcDbTableStyle
  3
ObjectDBX Classes
 90
     4095
 91
        3
280
     0
281
     0
  0
CLASS
  1
MLEADERSTYLE
  2
AcDbMLeaderStyle
  3
ACDB_MLEADERSTYLE_CLASS
 90
     4095
 91
        3
280
     0
281
     0
  0
CLASS
  1
SUN
  2
AcDbSun
  3
SCENEOE
 90
     1153
 91
        3
280
     0
281
     0
  0
CLASS
  1
DICTIONARYVAR
  2
AcDbDictionaryVar
  3
ObjectDBX Classes
 90
        0
 91
        3
280
     0
281
     0
  0
CLASS
  1
CELLSTYLEMAP
  2
AcDbCellStyleMap
  3
ObjectDBX Classes
 90
     1152
 91
        3
280
     0
281
     0
  0
ENDSEC
  0
SECTION
  2
TABLES
  0
TABLE
  2
VPORT
  5
8
330
0
100
AcDbSymbolTable
 70
     1
  0
VPORT
  5
29
330
8
100
AcDbSymbolTableRecord
100
AcDbViewportTableRecord
  2
*Active
 70
     0
 10
0.0
 20
0.0
 11
1.0
 21
1.0
 12
10.42990654205607
 22
4.5
 13
0.0
 23
0.0
 14
0.5
 24
0.5
 15
0.5
 25
0.5
 16
0.0
 26
0.0
 36
1.0
 17
0.0
 27
0.0
 37
0.0
 40
9.0
 41
1.972972972850329
 42
50.0
 43
0.0
 44
0.0
 50
0.0
 51
0.0
 71
     0
 72
   100
 73
     1
 74
     3
 75
     0
 76
     0
 77
     0
 78
     0
281
     0
 65
     1
110
0.0
120
0.0
130
0.0
111
1.0
121
0.0
131
0.0
112
0.0
122
1.0
132
0.0
 79
     0
146
0.0
348
2F
 60
     3
 61
     5
292
     1
282
     1
141
0.0
142
0.0
 63
   250
361
5D
  0
ENDTAB
  0
TABLE
  2
LTYPE
  5
5
330
0
100
AcDbSymbolTable
 70
     1
  0
LTYPE
  5
14
330
5
100
AcDbSymbolTableRecord
100
AcDbLinetypeTableRecord
  2
ByBlock
 70
     0
  3

 72
    65
 73
     0
 40
0.0
  0
LTYPE
  5
15
330
5
100
AcDbSymbolTableRecord
100
AcDbLinetypeTableRecord
  2
ByLayer
 70
     0
  3

 72
    65
 73
     0
 40
0.0
  0
LTYPE
  5
16
330
5
100
AcDbSymbolTableRecord
100
AcDbLinetypeTableRecord
  2
Continuous
 70
     0
  3
Solid line
 72
    65
 73
     0
 40
0.0
  0
ENDTAB
  0
TABLE
  2
LAYER
  5
2
330
0
100
AcDbSymbolTable
 70
     2
  0
LAYER
  5
10
330
2
100
AcDbSymbolTableRecord
100
AcDbLayerTableRecord
  2
0
 70
     0
 62
     7
  6
Continuous
370
    -3
390
F
347
46
  0
LAYER
  5
5F
330
2
100
AcDbSymbolTableRecord
100
AcDbLayerTableRecord
  2
Default
 70
     0
 62
     5
420
      255
  6
Continuous
370
    -3
390
F
347
46
  0
ENDTAB
  0
TABLE
  2
STYLE
  5
3
330
0
100
AcDbSymbolTable
 70
     1
  0
STYLE
  5
11
330
3
100
AcDbSymbolTableRecord
100
AcDbTextStyleTableRecord
  2
Standard
 70
     0
 40
0.0
 41
1.0
 50
0.0
 71
     0
 42
0.2
  3
txt
  4

  0
ENDTAB
  0
TABLE
  2
VIEW
  5
6
330
0
100
AcDbSymbolTable
 70
     0
  0
ENDTAB
  0
TABLE
  2
UCS
  5
7
330
0
100
AcDbSymbolTable
 70
     0
  0
ENDTAB
  0
TABLE
  2
APPID
  5
9
330
0
100
AcDbSymbolTable
 70
     3
  0
APPID
  5
12
330
9
100
AcDbSymbolTableRecord
100
AcDbRegAppTableRecord
  2
ACAD
 70
     0
  0
APPID
  5
5E
330
9
100
AcDbSymbolTableRecord
100
AcDbRegAppTableRecord
  2
Rhino
 70
     0
  0
APPID
  5
C7
330
9
100
AcDbSymbolTableRecord
100
AcDbRegAppTableRecord
  2
ACAD_MLEADERVER
 70
     0
  0
ENDTAB
  0
TABLE
  2
DIMSTYLE
  5
A
330
0
100
AcDbSymbolTable
 70
     1
100
AcDbDimStyleTable
  0
DIMSTYLE
105
27
330
A
100
AcDbSymbolTableRecord
100
AcDbDimStyleTableRecord
  2
STANDARD_ACAD
 70
     0
178
     0
340
11
  0
ENDTAB
  0
TABLE
  2
BLOCK_RECORD
  5
1
330
0
100
AcDbSymbolTable
 70
     1
  0
BLOCK_RECORD
  5
1F
330
1
100
AcDbSymbolTableRecord
100
AcDbBlockTableRecord
  2
*Model_Space
340
22
 70
     0
280
     1
281
     0
  0
BLOCK_RECORD
  5
1B
330
1
100
AcDbSymbolTableRecord
100
AcDbBlockTableRecord
  2
*Paper_Space
340
1E
 70
     0
280
     1
281
     0
  0
BLOCK_RECORD
  5
23
330
1
100
AcDbSymbolTableRecord
100
AcDbBlockTableRecord
  2
*Paper_Space0
340
26
 70
     0
280
     1
281
     0
  0
ENDTAB
  0
ENDSEC
  0
SECTION
  2
BLOCKS
  0
BLOCK
  5
20
330
1F
100
AcDbEntity
  8
0
100
AcDbBlockBegin
  2
*Model_Space
 70
     0
 10
0.0
 20
0.0
 30
0.0
  3
*Model_Space
  1

  0
ENDBLK
  5
21
330
1F
100
AcDbEntity
  8
0
100
AcDbBlockEnd
  0
BLOCK
  5
1C
330
1B
100
AcDbEntity
 67
     1
  8
0
100
AcDbBlockBegin
  2
*Paper_Space
 70
     0
 10
0.0
 20
0.0
 30
0.0
  3
*Paper_Space
  1

  0
ENDBLK
  5
1D
330
1B
100
AcDbEntity
 67
     1
  8
0
100
AcDbBlockEnd
  0
BLOCK
  5
24
330
23
100
AcDbEntity
  8
0
100
AcDbBlockBegin
  2
*Paper_Space0
 70
     0
 10
0.0
 20
0.0
 30
0.0
  3
*Paper_Space0
  1

  0
ENDBLK
  5
25
330
23
100
AcDbEntity
  8
0
100
AcDbBlockEnd
  0
ENDSEC
  0
SECTION
  2
ENTITIES
  0
SPLINE
  5
60
330
1F
100
AcDbEntity
  8
Default
100
AcDbSpline
210
0.0
220
0.0
230
1.0
 70
    12
 71
     3
 72
    30
 73
    26
 74
     0
 42
0.0000000001
 43
0.0000000001
 40
12491.51812609904
 40
12491.51812609904
 40
12491.51812609904
 40
12491.51812609904
 40
12506.45134952249
 40
12521.38457650631
 40
12536.31780349012
 40
12551.25103047394
 40
12566.18425745775
 40
12581.11748444157
 40
12596.05071142538
 40
12610.9839384092
 40
12625.91716539301
 40
12640.85039237683
 40
12655.78361936064
 40
12670.71684634446
 40
12685.65007332827
 40
12700.58330031209
 40
12715.5165272959
 40
12730.44975427972
 40
12745.38298126353
 40
12760.31620824735
 40
12775.24943523116
 40
12790.18266221498
 40
12805.11588919879
 40
12820.0491161826
 40
12821.35104931973
 40
12821.35104931973
 40
12821.35104931973
 40
12821.35104931973
 10
1677.815061326202
 20
-33.55476527662972
 30
0.0
 41
1.0
 10
1683.246059014372
 20
-33.55476526715279
 30
0.0
 41
1.0
 10
1694.108055678824
 20
-33.55476524819892
 30
0.0
 41
1.0
 10
1710.401051399225
 20
-33.55476521976857
 30
0.0
 41
1.0
 10
1726.69404812949
 20
-33.55476519133731
 30
0.0
 41
1.0
 10
1742.987045923403
 20
-33.55476516291037
 30
0.0
 41
1.0
 10
1759.280039747716
 20
-33.55476513446592
 30
0.0
 41
1.0
 10
1775.573048386789
 20
-33.55476510608696
 30
0.0
 41
1.0
 10
1791.866001736412
 20
-33.55476507746357
 30
0.0
 41
1.0
 10
1808.15916142908
 20
-33.55476504975286
 30
0.0
 41
1.0
 10
1824.451551039016
 20
-33.55476501863609
 30
0.0
 41
1.0
 10
1840.746814636836
 20
-33.55476500023065
 30
0.0
 41
1.0
 10
1857.031352365848
 20
-33.55476493438687
 30
0.0
 41
1.0
 10
1873.332808543713
 20
-33.55476504563671
 30
0.0
 41
1.0
 10
1889.623538871962
 20
-33.55476449577532
 30
0.0
 41
1.0
 10
1905.917143111339
 20
-33.55476641282121
 30
0.0
 41
1.0
 10
1922.209977556178
 20
-33.554759128353
 30
0.0
 41
1.0
 10
1938.5030172673
 20
-33.5547862034025
 30
0.0
 41
1.0
 10
1954.796005688328
 20
-33.5546847794385
 30
0.0
 41
1.0
 10
1971.088994044711
 20
-33.55506218172718
 30
0.0
 41
1.0
 10
1987.382034966888
 20
-33.55366635701671
 30
0.0
 41
1.0
 10
2003.674863484335
 20
-33.55891420629268
 30
0.0
 41
1.0
 10
2019.968437106893
 20
-33.53866667638272
 30
0.0
 41
1.0
 10
2031.302483922116
 20
-33.59027261124947
 30
0.0
 41
1.0
 10
2037.208675994077
 20
-33.55467752726827
 30
0.0
 41
1.0
 10
2037.682313789778
 20
-33.55166492253443
 30
0.0
 41
1.0
  0
SPLINE
  5
61
330
1F
100
AcDbEntity
  8
Default
100
AcDbSpline
210
0.0
220
0.0
230
1.0
 70
    12
 71
     3
 72
     8
 73
     4
 74
     0
 42
0.0000000001
 43
0.0000000001
 40
12821.35104931973
 40
12821.35104931973
 40
12821.35104931973
 40
12821.35104931973
 40
12830.31572794412
 40
12830.31572794412
 40
12830.31572794412
 40
12830.31572794412
 10
2037.682313789778
 20
-33.55166492253443
 30
0.0
 41
1.0
 10
2040.943591692223
 20
-33.53155230238758
 30
0.0
 41
1.0
 10
2044.205215010014
 20
-33.50394115409813
 30
0.0
 41
1.0
 10
2047.464415001752
 20
-33.54836208879919
 30
0.0
 41
1.0
  0
SPLINE
  5
62
330
1F
100
AcDbEntity
  8
Default
100
AcDbSpline
210
0.0
220
0.0
230
1.0
 70
    12
 71
     3
 72
    14
 73
    10
 74
     0
 42
0.0000000001
 43
0.0000000001
 40
12830.31572794412
 40
12830.31572794412
 40
12830.31572794412
 40
12830.31572794412
 40
12834.98234316642
 40
12849.91557015023
 40
12864.84879713405
 40
12879.78202411786
 40
12894.71525110168
 40
12909.64847808549
 40
12924.58170506931
 40
12924.58170506931
 40
12924.58170506931
 40
12924.58170506931
 10
2047.464415001752
 20
-33.54836208879919
 30
0.0
 41
1.0
 10
2049.161029413223
 20
-33.57106565850972
 30
0.0
 41
1.0
 10
2056.284073101246
 20
-33.7484005388626
 30
0.0
 41
1.0
 10
2068.801654651903
 20
-35.01616908063988
 30
0.0
 41
1.0
 10
2084.751775010149
 20
-38.46848781402969
 30
0.0
 41
1.0
 10
2100.20711089459
 20
-43.70323207943034
 30
0.0
 41
1.0
 10
2114.974425262085
 20
-50.64628490896393
 30
0.0
 41
1.0
 10
2128.86804006876
 20
-59.22003641889182
 30
0.0
 41
1.0
 10
2137.422508676437
 20
-65.93806084818243
 30
0.0
 41
1.0
 10
2141.4935066754
 20
-69.52591589596682
 30
0.0
 41
1.0
  0
SPLINE
  5
63
330
1F
100
AcDbEntity
  8
Default
100
AcDbSpline
210
0.0
220
0.0
230
1.0
 70
    24
 71
     2
 72
     6
 73
     3
 74
     0
 42
0.0000000001
 43
0.0000000001
 40
12924.58170506931
 40
12924.58170506931
 40
12924.58170506931
 40
14079.09458936294
 40
14079.09458936294
 40
14079.09458936294
 10
2141.4935066754
 20
-69.52591589596682
 30
0.0
 10
2141.743333426061
 20
-54.42109949063365
 30
0.0
 10
2141.993160176722
 20
-39.31628308530048
 30
0.0
  0
SPLINE
  5
64
330
1F
100
AcDbEntity
  8
Default
100
AcDbSpline
210
0.0
220
0.0
230
1.0
 70
    28
 71
     3
 72
     8
 73
     4
 74
     0
 42
0.0000000001
 43
0.0000000001
 40
14079.09458936294
 40
14079.09458936294
 40
14079.09458936294
 40
14079.09458936294
 40
14943.15477245206
 40
14943.15477245206
 40
14943.15477245206
 40
14943.15477245206
 10
2141.993160176722
 20
-39.31628308530048
 30
0.0
 41
1.0
 10
2142.159711343832
 20
-29.24640548175012
 30
0.0
 41
1.0
 10
2142.326262510938
 20
-19.17652787819952
 30
0.0
 41
1.0
 10
2142.492813678047
 20
-9.106650274648928
 30
0.0
 41
1.0
  0
SPLINE
  5
65
330
1F
100
AcDbEntity
  8
Default
100
AcDbSpline
210
0.0
220
0.0
230
1.0
 70
    12
 71
     3
 72
    25
 73
    21
 74
     0
 42
0.0000000001
 43
0.0000000001
 40
8913.927502448234
 40
8913.927502448234
 40
8913.927502448234
 40
8913.927502448234
 40
8932.08805035423
 40
8950.248598260228
 40
8968.409146166225
 40
8986.569694072221
 40
9004.730241978217
 40
9022.890789884215
 40
9041.051337790212
 40
9059.211885696208
 40
9077.372433602206
 40
9095.532981508202
 40
9113.693529414199
 40
9131.854077320197
 40
9150.014625226191
 40
9168.17517313219
 40
9186.335721038186
 40
9204.496268944184
 40
9222.65681685018
 40
9223.013954467113
 40
9223.013954467113
 40
9223.013954467113
 40
9223.013954467113
 10
2142.492813678047
 20
-9.106650274648928
 30
0.0
 41
1.0
 10
2137.469145896781
 20
-8.661555804400678
 30
0.0
 41
1.0
 10
2127.419237884685
 20
-7.800501453732068
 30
0.0
 41
1.0
 10
2112.336960086681
 20
-6.596351105112944
 30
0.0
 41
1.0
 10
2097.248082803957
 20
-5.479698069592132
 30
0.0
 41
1.0
 10
2082.152976836452
 20
-4.450567836572645
 30
0.0
 41
1.0
 10
2067.052083941027
 20
-3.50899183931233
 30
0.0
 41
1.0
 10
2051.94605604392
 20
-2.655010605453299
 30
0.0
 41
1.0
 10
2036.835300068542
 20
-1.888646493769784
 30
0.0
 41
1.0
 10
2021.720348860942
 20
-1.209927407480109
 30
0.0
 41
1.0
 10
2006.601728655068
 20
-0.6188755237822079
 30
0.0
 41
1.0
 10
1991.479929374399
 20
-0.1155146985036026
 30
0.0
 41
1.0
 10
1976.355455158496
 20
0.3001558797736834
 30
0.0
 41
1.0
 10
1961.228926002695
 20
0.6280532108849002
 30
0.0
 41
1.0
 10
1946.100552022385
 20
0.8684245911661037
 30
0.0
 41
1.0
 10
1930.97121682234
 20
1.020309139376877
 30
0.0
 41
1.0
 10
1915.841098384354
 20
1.087235718001011
 30
0.0
 41
1.0
 10
1900.711017889198
 20
1.055829120806948
 30
0.0
 41
1.0
 10
1890.525328792154
 20
1.001296791788036
 30
0.0
 41
1.0
 10
1885.383044108782
 20
0.9350450294766688
 30
0.0
 41
1.0
 10
1885.283868523594
 20
0.933754127613156
 30
0.0
 41
1.0
  0
SPLINE
  5
66
330
1F
100
AcDbEntity
  8
Default
100
AcDbSpline
210
0.0
220
0.0
230
1.0
 70
    12
 71
     3
 72
    15
 73
    11
 74
     0
 42
0.0000000001
 43
0.0000000001
 40
9223.013954467113
 40
9223.013954467113
 40
9223.013954467113
 40
9223.013954467113
 40
9234.052255975752
 40
9234.052255975752
 40
9234.052255975752
 40
9240.817364756178
 40
9245.78233755228
 40
9245.78233755228
 40
9245.78233755228
 40
9253.872581548416
 40
9253.872581548416
 40
9253.872581548416
 40
9253.872581548416
 10
1885.283868523594
 20
0.933754127613156
 30
0.0
 41
1.0
 10
1882.218551850908
 20
0.8969628838335666
 30
0.0
 41
1.0
 10
1879.15328673055
 20
0.8476091973916482
 30
0.0
 41
1.0
 10
1876.088028835033
 20
0.8226530269962495
 30
0.0
 41
1.0
 10
1874.209407416492
 20
0.8018030878570244
 30
0.0
 41
1.0
 10
1870.952053929749
 20
0.7815410564708145
 30
0.0
 41
1.0
 10
1867.694677914794
 20
0.8144107303446617
 30
0.0
 41
1.0
 10
1866.316104694618
 20
0.8381779983974411
 30
0.0
 41
1.0
 10
1864.069780767566
 20
0.8827639867258767
 30
0.0
 41
1.0
 10
1861.823911122051
 20
0.9535149093956079
 30
0.0
 41
1.0
 10
1859.579253458345
 20
1.051881241880437
 30
0.0
 41
1.0
  0
SPLINE
  5
67
330
1F
100
AcDbEntity
  8
Default
100
AcDbSpline
210
0.0
220
0.0
230
1.0
 70
    12
 71
     3
 72
    14
 73
    10
 74
     0
 42
0.0000000001
 43
0.0000000001
 40
9253.872581548416
 40
9253.872581548416
 40
9253.872581548416
 40
9253.872581548416
 40
9258.977912662174
 40
9277.13846056817
 40
9295.299008474167
 40
9313.459556380163
 40
9331.620104286161
 40
9349.780652192158
 40
9366.322516088376
 40
9366.322516088376
 40
9366.322516088376
 40
9366.322516088376
 10
1859.579253458345
 20
1.051881241880437
 30
0.0
 41
1.0
 10
1858.162744721643
 20
1.112988697696665
 30
0.0
 41
1.0
 10
1851.709668122388
 20
1.44158172262587
 30
0.0
 41
1.0
 10
1840.244427987756
 20
2.446802935850656
 30
0.0
 41
1.0
 10
1825.261608329101
 20
4.594928502105859
 30
0.0
 41
1.0
 10
1810.420003809547
 20
7.560053200976654
 30
0.0
 41
1.0
 10
1795.762432494132
 20
11.37233399988827
 30
0.0
 41
1.0
 10
1781.757513048958
 20
15.73653161258335
 30
0.0
 41
1.0
 10
1772.615402348266
 20
18.82716069742787
 30
0.0
 41
1.0
 10
1768.265620086841
 20
20.29050229439213
 30
0.0
 41
1.0
  0
SPLINE
  5
68
330
1F
100
AcDbEntity
  8
Default
100
AcDbSpline
210
0.0
220
0.0
230
1.0
 70
    12
 71
     3
 72
    14
 73
    10
 74
     0
 42
0.0000000001
 43
0.0000000001
 40
9366.322516088376
 40
9366.322516088376
 40
9366.322516088376
 40
9366.322516088376
 40
9367.941200098154
 40
9386.10174800415
 40
9404.262295910148
 40
9422.422843816144
 40
9440.58339172214
 40
9458.743939628139
 40
9476.904482877368
 40
9476.904482877368
 40
9476.904482877368
 40
9476.904482877368
 10
1768.265620086841
 20
20.29050229439213
 30
0.0
 41
1.0
 10
1767.839995732721
 20
20.43373133818682
 30
0.0
 41
1.0
 10
1762.640094583371
 20
22.18273657701297
 30
0.0
 41
1.0
 10
1752.686954036296
 20
25.49406429735996
 30
0.0
 41
1.0
 10
1737.9526688357
 20
29.26296384510897
 30
0.0
 41
1.0
 10
1723.088189753973
 20
32.04083173850313
 30
0.0
 41
1.0
 10
1708.054962201932
 20
33.82613182798468
 30
0.0
 41
1.0
 10
1692.945165832802
 20
34.731558308991
 30
0.0
 41
1.0
 10
1682.858658386293
 20
34.87951158494252
 30
0.0
 41
1.0
 10
1677.815061326201
 20
34.87983635867499
 30
0.0
 41
1.0
  0
SPLINE
  5
69
330
1F
100
AcDbEntity
  8
Default
100
AcDbSpline
210
0.0
220
0.0
230
1.0
 70
     8
 71
     3
 72
    98
 73
    94
 74
     0
 42
0.0000000001
 43
0.0000000001
 40
0.0
 40
0.0
 40
0.0
 40
0.0
 40
21.19323579696354
 40
21.19323579696354
 40
21.19323579696354
 40
42.07418713500624
 40
42.07418713500624
 40
42.07418713500624
 40
62.96912152009354
 40
62.96912152009354
 40
62.96912152009354
 40
83.83171804567364
 40
83.83171804567364
 40
83.83171804567364
 40
104.7043803148271
 40
104.7043803148271
 40
104.7043803148271
 40
125.5696418031081
 40
125.5696418031081
 40
125.5696418031081
 40
146.4295654017132
 40
146.4295654017132
 40
146.4295654017132
 40
167.2841961283617
 40
167.2841961283617
 40
167.2841961283617
 40
188.1330289297212
 40
188.1330289297212
 40
188.1330289297212
 40
208.9742632016437
 40
208.9742632016437
 40
208.9742632016437
 40
229.8519316703741
 40
229.8519316703741
 40
229.8519316703741
 40
250.7288926481914
 40
250.7288926481914
 40
250.7288926481914
 40
271.6040107058923
 40
271.6040107058923
 40
271.6040107058923
 40
292.476488775268
 40
292.476488775268
 40
292.476488775268
 40
313.3464209719251
 40
313.3464209719251
 40
313.3464209719251
 40
334.2133293817863
 40
334.2133293817863
 40
334.2133293817863
 40
355.0765783283962
 40
355.0765783283962
 40
355.0765783283962
 40
375.9354356307796
 40
375.9354356307796
 40
375.9354356307796
 40
396.7890499859042
 40
396.7890499859042
 40
396.7890499859042
 40
417.6364176698945
 40
417.6364176698945
 40
417.6364176698945
 40
438.4764424530545
 40
438.4764424530545
 40
438.4764424530545
 40
459.3438334144327
 40
459.3438334144327
 40
459.3438334144327
 40
480.2076611926339
 40
480.2076611926339
 40
480.2076611926339
 40
501.1612343341276
 40
501.1612343341276
 40
501.1612343341276
 40
522.0272796352032
 40
522.0272796352032
 40
522.0272796352032
 40
542.8860205808772
 40
542.8860205808772
 40
542.8860205808772
 40
563.7332079477577
 40
563.7332079477577
 40
563.7332079477577
 40
584.5641978906674
 40
584.5641978906674
 40
584.5641978906674
 40
605.3740093654742
 40
605.3740093654742
 40
605.3740093654742
 40
626.1811724011106
 40
626.1811724011106
 40
626.1811724011106
 40
647.0071820848823
 40
647.0071820848823
 40
647.0071820848823
 40
647.0071820848823
 10
1677.815057446326
 20
141.8294710124817
 30
0.0
 10
1684.879093028224
 20
141.8283409160997
 30
0.0
 10
1691.943735144155
 20
141.7124262083735
 30
0.0
 10
1699.006485588873
 20
141.6024181935686
 30
0.0
 10
1705.965949466045
 20
141.4940189500692
 30
0.0
 10
1712.925527998964
 20
141.3909308466477
 30
0.0
 10
1719.88460477824
 20
141.2603745685958
 30
0.0
 10
1726.848318389897
 20
141.1297313009043
 30
0.0
 10
1733.811646882515
 20
140.9718291104034
 30
0.0
 10
1740.774262984195
 20
140.7943852843507
 30
0.0
 10
1747.726176501858
 20
140.6172142160412
 30
0.0
 10
1754.677691420942
 20
140.4203739213922
 30
0.0
 10
1761.628367396011
 20
140.2013963279676
 30
0.0
 10
1768.582439086999
 20
139.9823117542001
 30
0.0
 10
1775.535929152041
 20
139.7411421645631
 30
0.0
 10
1782.488416036006
 20
139.4778839362202
 30
0.0
 10
1789.438491696639
 20
139.2147170096507
 30
0.0
 10
1796.38783748217
 20
138.9294317227252
 30
0.0
 10
1803.336104644912
 20
138.6233390595962
 30
0.0
 10
1810.282647312691
 20
138.3173223658052
 30
0.0
 10
1817.228372350076
 20
137.9905081213085
 30
0.0
 10
1824.17294046307
 20
137.6434641909877
 30
0.0
 10
1831.115793160981
 20
137.2965059858532
 30
0.0
 10
1838.057730029405
 20
136.929310859322
 30
0.0
 10
1844.998405101198
 20
136.5420118994634
 30
0.0
 10
1851.93719457333
 20
136.1548181585902
 30
0.0
 10
1858.874958492675
 20
135.7475302631312
 30
0.0
 10
1865.811334191163
 20
135.3199807152857
 30
0.0
 10
1872.745224594818
 20
134.8925843579141
 30
0.0
 10
1879.677964360084
 20
134.444885607383
 30
0.0
 10
1886.609135582297
 20
133.9761331170746
 30
0.0
 10
1893.552467847163
 20
133.5065581800477
 30
0.0
 10
1900.494481897313
 20
133.0158987394886
 30
0.0
 10
1907.4347396939
 20
132.5035518726725
 30
0.0
 10
1914.374809557472
 20
131.9912188795329
 30
0.0
 10
1921.313388940003
 20
131.4571437790223
 30
0.0
 10
1928.250011048581
 20
130.9007277777537
 30
0.0
 10
1935.186070832947
 20
130.344356882905
 30
0.0
 10
1942.120460993177
 20
129.7656356105374
 30
0.0
 10
1949.05265047144
 20
129.163604664757
 30
0.0
 10
1955.984013762992
 20
128.5616454697513
 30
0.0
 10
1962.913496154361
 20
127.9363510035439
 30
0.0
 10
1969.840313606848
 20
127.2848586664102
 30
0.0
 10
1976.766344638848
 20
126.6334402949794
 30
0.0
 10
1983.690075017532
 20
125.9557968449481
 30
0.0
 10
1990.610849921242
 20
125.2514744832999
 30
0.0
 10
1997.530695088466
 20
124.5472467402753
 30
0.0
 10
2004.447997621794
 20
123.8163050671383
 30
0.0
 10
2011.362009145124
 20
123.0576727572136
 30
0.0
 10
2018.274884116058
 20
122.2991651542509
 30
0.0
 10
2025.184905969291
 20
121.5129278491981
 30
0.0
 10
2032.091275827504
 20
120.6980480726481
 30
0.0
 10
2038.996273748794
 20
119.8833301703783
 30
0.0
 10
2045.898090845279
 20
119.0399267806649
 30
0.0
 10
2052.795858846998
 20
118.1668464570007
 30
0.0
 10
2059.691980535151
 20
117.2939745143638
 30
0.0
 10
2066.584559434148
 20
116.3913717250755
 30
0.0
 10
2073.472641060065
 20
115.4579157570352
 30
0.0
 10
2080.358753768906
 20
114.5247266118195
 30
0.0
 10
2087.240917434819
 20
113.5606443047757
 30
0.0
 10
2094.118121741333
 20
112.5646761845001
 30
0.0
 10
2100.993004340282
 20
111.5690442977598
 30
0.0
 10
2107.863512154566
 20
110.5413995389179
 30
0.0
 10
2114.728441055835
 20
109.4800777380965
 30
0.0
 10
2121.602495432784
 20
108.4173451336935
 30
0.0
 10
2128.471615762962
 20
107.3208719844192
 30
0.0
 10
2135.334651923911
 20
106.1899527485548
 30
0.0
 10
2142.196633689242
 20
105.0592072603233
 30
0.0
 10
2149.053202719683
 20
103.8936743032332
 30
0.0
 10
2155.902730576343
 20
102.6906144107231
 30
0.0
 10
2162.78185509606
 20
101.4823561222033
 30
0.0
 10
2169.654723018333
 20
100.2365111762863
 30
0.0
 10
2176.520060206054
 20
98.95307726589704
 30
0.0
 10
2183.356865416364
 20
97.67497723880274
 30
0.0
 10
2190.186979308756
 20
96.35906805700029
 30
0.0
 10
2197.008555225279
 20
95.00289704255397
 30
0.0
 10
2203.827896565217
 20
93.64717027559982
 30
0.0
 10
2210.639660519127
 20
92.25121435502592
 30
0.0
 10
2217.441956307493
 20
90.81331156723809
 30
0.0
 10
2224.240656276634
 20
89.37616888142838
 30
0.0
 10
2231.030909151776
 20
87.8968529326678
 30
0.0
 10
2237.810577157523
 20
86.37340324265915
 30
0.0
 10
2244.585167426318
 20
84.85109456379973
 30
0.0
 10
2251.3503240222
 20
83.28448509324812
 30
0.0
 10
2258.103663602426
 20
81.67151281142833
 30
0.0
 10
2264.850346219585
 20
80.06013048325781
 30
0.0
 10
2271.58648445558
 20
78.4021489235165
 30
0.0
 10
2278.309356018346
 20
76.69519964986603
 30
0.0
 10
2285.031602275303
 20
74.98840914249354
 30
0.0
 10
2291.741991212501
 20
73.23227538432138
 30
0.0
 10
2298.437281509667
 20
71.42376429797878
 30
0.0
 10
2305.138898497784
 20
69.61354426546472
 30
0.0
 10
2311.82701512858
 20
67.75052207171939
 30
0.0
 10
2318.498223919803
 20
65.83248288063828
 30
0.0
  0
SPLINE
  5
6A
330
1F
100
AcDbEntity
  8
Default
100
AcDbSpline
210
0.0
220
0.0
230
1.0
 70
     8
 71
     3
 72
     8
 73
     4
 74
     0
 42
0.0000000001
 43
0.0000000001
 40
647.0071820848823
 40
647.0071820848823
 40
647.0071820848823
 40
647.0071820848823
 40
793.9730120575131
 40
793.9730120575131
 40
793.9730120575131
 40
793.9730120575131
 10
2318.498223919803
 20
65.83248288063828
 30
0.0
 10
2305.839757542091
 20
18.50734950837682
 30
0.0
 10
2293.200789163355
 20
-28.82278609468653
 30
0.0
 10
2280.581363176318
 20
-76.15811053564516
 30
0.0
  0
SPLINE
  5
6B
330
1F
100
AcDbEntity
  8
Default
100
AcDbSpline
210
0.0
220
0.0
230
1.0
 70
     8
 71
     3
 72
     8
 73
     4
 74
     0
 42
0.0000000001
 43
0.0000000001
 40
793.9730120575131
 40
793.9730120575131
 40
793.9730120575131
 40
793.9730120575131
 40
936.3095406638745
 40
936.3095406638745
 40
936.3095406638745
 40
936.3095406638745
 10
2280.581363176318
 20
-76.15811053564516
 30
0.0
 10
2240.901561554205
 20
-102.1694066761468
 30
0.0
 10
2201.222722382445
 20
-128.1821712113015
 30
0.0
 10
2161.544952223214
 20
-154.1965659627472
 30
0.0
  0
SPLINE
  5
6C
330
1F
100
AcDbEntity
  8
Default
100
AcDbSpline
210
0.0
220
0.0
230
1.0
 70
     8
 71
     3
 72
    92
 73
    88
 74
     0
 42
0.0000000001
 43
0.0000000001
 40
936.3095406638745
 40
936.3095406638745
 40
936.3095406638745
 40
936.3095406638745
 40
953.0278838264967
 40
953.0278838264967
 40
953.0278838264967
 40
969.7327673238261
 40
969.7327673238261
 40
969.7327673238261
 40
986.4243450734753
 40
986.4243450734753
 40
986.4243450734753
 40
1003.107786900312
 40
1003.107786900312
 40
1003.107786900312
 40
1019.799297271561
 40
1019.799297271561
 40
1019.799297271561
 40
1036.488581570656
 40
1036.488581570656
 40
1036.488581570656
 40
1053.174281134472
 40
1053.174281134472
 40
1053.174281134472
 40
1069.856948254869
 40
1069.856948254869
 40
1069.856948254869
 40
1086.572265499917
 40
1086.572265499917
 40
1086.572265499917
 40
1103.27338841343
 40
1103.27338841343
 40
1103.27338841343
 40
1119.970623972669
 40
1119.970623972669
 40
1119.970623972669
 40
1136.662318298168
 40
1136.662318298168
 40
1136.662318298168
 40
1153.361917897914
 40
1153.361917897914
 40
1153.361917897914
 40
1170.054471092453
 40
1170.054471092453
 40
1170.054471092453
 40
1186.743763504831
 40
1186.743763504831
 40
1186.743763504831
 40
1203.44151081039
 40
1203.44151081039
 40
1203.44151081039
 40
1220.141829849905
 40
1220.141829849905
 40
1220.141829849905
 40
1236.82585316795
 40
1236.82585316795
 40
1236.82585316795
 40
1253.527126821908
 40
1253.527126821908
 40
1253.527126821908
 40
1270.225459348701
 40
1270.225459348701
 40
1270.225459348701
 40
1286.924722681598
 40
1286.924722681598
 40
1286.924722681598
 40
1303.63190888374
 40
1303.63190888374
 40
1303.63190888374
 40
1320.332042632391
 40
1320.332042632391
 40
1320.332042632391
 40
1337.05629906786
 40
1337.05629906786
 40
1337.05629906786
 40
1353.725594409212
 40
1353.725594409212
 40
1353.725594409212
 40
1370.431946449513
 40
1370.431946449513
 40
1370.431946449513
 40
1387.122524891324
 40
1387.122524891324
 40
1387.122524891324
 40
1403.816216861596
 40
1403.816216861596
 40
1403.816216861596
 40
1420.515629902612
 40
1420.515629902612
 40
1420.515629902612
 40
1420.515629902612
 10
2161.544952223214
 20
-154.1965659627472
 30
0.0
 10
2156.007878243294
 20
-154.8258902803279
 30
0.0
 10
2150.467823226904
 20
-155.4309166129412
 30
0.0
 10
2144.924958107499
 20
-156.0060762184407
 30
0.0
 10
2139.386474615048
 20
-156.5807811610944
 30
0.0
 10
2133.844639297105
 20
-157.1257038488041
 30
0.0
 10
2128.300431092624
 20
-157.6409725089138
 30
0.0
 10
2122.760507214573
 20
-158.1558429914921
 30
0.0
 10
2117.217633210522
 20
-158.6411623624144
 30
0.0
 10
2111.673157990882
 20
-159.1032755187935
 30
0.0
 10
2106.131263294531
 20
-159.5651735973313
 30
0.0
 10
2100.587315992459
 20
-160.0039137658121
 30
0.0
 10
2095.042219409789
 20
-160.4248528309436
 30
0.0
 10
2089.494363882244
 20
-160.8460013329457
 30
0.0
 10
2083.945099985233
 20
-161.2493719640393
 30
0.0
 10
2078.395181754095
 20
-161.6419817528913
 30
0.0
 10
2072.845967044163
 20
-162.0345417735659
 30
0.0
 10
2067.295944804229
 20
-162.4163451482607
 30
0.0
 10
2061.745036126481
 20
-162.7838707197957
 30
0.0
 10
2056.195318521502
 20
-163.1513174304218
 30
0.0
 10
2050.644530806472
 20
-163.5045182990566
 30
0.0
 10
2045.092297509063
 20
-163.830888822763
 30
0.0
 10
2039.541054848674
 20
-164.1572011149967
 30
0.0
 10
2033.988000440611
 20
-164.4566500886469
 30
0.0
 10
2028.433844080551
 20
-164.7267430947447
 30
0.0
 10
2022.868714704422
 20
-164.9973697075154
 30
0.0
 10
2017.301927125534
 20
-165.2386619708445
 30
0.0
 10
2011.734450961428
 20
-165.4529121721052
 30
0.0
 10
2006.171581795281
 20
-165.6669850847329
 30
0.0
 10
2000.607486165789
 20
-165.8539978281844
 30
0.0
 10
1995.042992156779
 20
-166.0176055837312
 30
0.0
 10
1989.479687197733
 20
-166.1811783787234
 30
0.0
 10
1983.915579148376
 20
-166.3214023756932
 30
0.0
 10
1978.351295061742
 20
-166.4447789919202
 30
0.0
 10
1972.78878377385
 20
-166.5681162999617
 30
0.0
 10
1967.225834106654
 20
-166.6746047981487
 30
0.0
 10
1961.662771269118
 20
-166.7680159293691
 30
0.0
 10
1956.097034575392
 20
-166.8614719581462
 30
0.0
 10
1950.531038786496
 20
-166.9418585023393
 30
0.0
 10
1944.964977462561
 20
-167.0119073905378
 30
0.0
 10
1939.401241193574
 20
-167.0819270179165
 30
0.0
 10
1933.837349632445
 20
-167.1416086667737
 30
0.0
 10
1928.273422058171
 20
-167.1929777039077
 30
0.0
 10
1922.710566468777
 20
-167.2443368439269
 30
0.0
 10
1917.147618268982
 20
-167.28738729417
 30
0.0
 10
1911.584653273799
 20
-167.3239220294504
 30
0.0
 10
1906.018860496042
 20
-167.3604753361744
 30
0.0
 10
1900.453015084329
 20
-167.3905090443573
 30
0.0
 10
1894.887162740719
 20
-167.4154119801642
 30
0.0
 10
1889.320447254797
 20
-167.4403187778732
 30
0.0
 10
1883.753702862953
 20
-167.4600968301486
 30
0.0
 10
1878.186957050186
 20
-167.4759224858383
 30
0.0
 10
1872.625639401016
 20
-167.4917327098462
 30
0.0
 10
1867.064307414804
 20
-167.5035893879406
 30
0.0
 10
1861.502976531019
 20
-167.512835663535
 30
0.0
 10
1855.935893726344
 20
-167.5220915022803
 30
0.0
 10
1850.36880385055
 20
-167.5287385930537
 30
0.0
 10
1844.801715441507
 20
-167.5319072513951
 30
0.0
 10
1839.235606657308
 20
-167.5350753521564
 30
0.0
 10
1833.669491602817
 20
-167.5347622968416
 30
0.0
 10
1828.103385621314
 20
-167.5302906539575
 30
0.0
 10
1822.536967676195
 20
-167.5258187604516
 30
0.0
 10
1816.970548284601
 20
-167.517187092566
 30
0.0
 10
1811.404144992565
 20
-167.504607033472
 30
0.0
 10
1805.835098295713
 20
-167.4920210002892
 30
0.0
 10
1800.26605661332
 20
-167.4754885134639
 30
0.0
 10
1794.697033189718
 20
-167.4555652832953
 30
0.0
 10
1789.130358312266
 20
-167.4356504550713
 30
0.0
 10
1783.563693189389
 20
-167.4123375612069
 30
0.0
 10
1777.99704316636
 20
-167.3866460095494
 30
0.0
 10
1772.42235073474
 20
-167.3609173400644
 30
0.0
 10
1766.847668198259
 20
-167.3328163569468
 30
0.0
 10
1761.272995330306
 20
-167.3032505711797
 30
0.0
 10
1755.716641777217
 20
-167.273781943569
 30
0.0
 10
1750.160295845152
 20
-167.2428463585904
 30
0.0
 10
1744.603950723514
 20
-167.2118472049067
 30
0.0
 10
1739.035253385493
 20
-167.1807791375313
 30
0.0
 10
1733.466556342041
 20
-167.14964987401
 30
0.0
 10
1727.897863405124
 20
-167.1178052658502
 30
0.0
 10
1722.334428518816
 20
-167.0859907258885
 30
0.0
 10
1716.770996651263
 20
-167.0534588076823
 30
0.0
 10
1711.207542275631
 20
-167.025305395917
 30
0.0
 10
1705.643052314865
 20
-166.9971467436569
 30
0.0
 10
1700.078532464784
 20
-166.973359099781
 30
0.0
 10
1694.514100734703
 20
-166.9355665917578
 30
0.0
 10
1688.947796724
 20
-166.8977613675793
 30
0.0
 10
1683.381469651503
 20
-166.8459235235434
 30
0.0
 10
1677.815057446334
 20
-166.8459350652788
 30
0.0
  0
SPLINE
  5
6D
330
1F
100
AcDbEntity
  8
Default
100
AcDbSpline
210
0.0
220
0.0
230
1.0
 70
     8
 71
     3
 72
    98
 73
    94
 74
     0
 42
0.0000000001
 43
0.0000000001
 40
0.0
 40
0.0
 40
0.0
 40
0.0
 40
19.97176010261096
 40
19.97176010261096
 40
19.97176010261096
 40
39.44100241489796
 40
39.44100241489796
 40
39.44100241489796
 40
58.91047029502762
 40
58.91047029502762
 40
58.91047029502762
 40
78.38867106778578
 40
78.38867106778578
 40
78.38867106778578
 40
97.86575882883604
 40
97.86575882883604
 40
97.86575882883604
 40
117.3480817231766
 40
117.3480817231766
 40
117.3480817231766
 40
136.8212261035329
 40
136.8212261035329
 40
136.8212261035329
 40
156.2783065325249
 40
156.2783065325249
 40
156.2783065325249
 40
175.713968009218
 40
175.713968009218
 40
175.713968009218
 40
195.1273508844925
 40
195.1273508844925
 40
195.1273508844925
 40
214.5937230719789
 40
214.5937230719789
 40
214.5937230719789
 40
234.0568441845162
 40
234.0568441845162
 40
234.0568441845162
 40
253.5191971183181
 40
253.5191971183181
 40
253.5191971183181
 40
272.981825739876
 40
272.981825739876
 40
272.981825739876
 40
292.4416074060988
 40
292.4416074060988
 40
292.4416074060988
 40
311.8976127025286
 40
311.8976127025286
 40
311.8976127025286
 40
331.3490666910193
 40
331.3490666910193
 40
331.3490666910193
 40
350.795115062407
 40
350.795115062407
 40
350.795115062407
 40
370.2347805767532
 40
370.2347805767532
 40
370.2347805767532
 40
389.6669793608507
 40
389.6669793608507
 40
389.6669793608507
 40
409.0904769289085
 40
409.0904769289085
 40
409.0904769289085
 40
428.5620230133459
 40
428.5620230133459
 40
428.5620230133459
 40
448.0326377451017
 40
448.0326377451017
 40
448.0326377451017
 40
467.6540066292137
 40
467.6540066292137
 40
467.6540066292137
 40
487.1413144151117
 40
487.1413144151117
 40
487.1413144151117
 40
506.6256745869052
 40
506.6256745869052
 40
506.6256745869052
 40
526.1021939815254
 40
526.1021939815254
 40
526.1021939815254
 40
545.5659953530338
 40
545.5659953530338
 40
545.5659953530338
 40
565.0119283362432
 40
565.0119283362432
 40
565.0119283362432
 40
584.4730652300503
 40
584.4730652300503
 40
584.4730652300503
 40
603.9878785635789
 40
603.9878785635789
 40
603.9878785635789
 40
603.9878785635789
 10
1677.815057446327
 20
129.1416462726611
 30
0.0
 10
1684.408016159156
 20
129.1397448008531
 30
0.0
 10
1691.192128690517
 20
128.9547828724355
 30
0.0
 10
1697.78259918894
 20
128.8052068820821
 30
0.0
 10
1704.270652771481
 20
128.6579553254128
 30
0.0
 10
1710.759410128128
 20
128.5416236341898
 30
0.0
 10
1717.247639611417
 20
128.4026409931125
 30
0.0
 10
1723.735952088728
 20
128.2636565742425
 30
0.0
 10
1730.223831974767
 20
128.101838271624
 30
0.0
 10
1736.711384981775
 20
127.9322413435812
 30
0.0
 10
1743.201894372222
 20
127.7625671300734
 30
0.0
 10
1749.692223605568
 20
127.5849795185686
 30
0.0
 10
1756.182154261129
 20
127.3948318608202
 30
0.0
 10
1762.671721153389
 20
127.2046948609266
 30
0.0
 10
1769.160958760166
 20
127.0020100248357
 30
0.0
 10
1775.649735391863
 20
126.787120931356
 30
0.0
 10
1782.140267906147
 20
126.5721736882379
 30
0.0
 10
1788.630463080156
 20
126.3450152057319
 30
0.0
 10
1795.119813586579
 20
126.0976636580797
 30
0.0
 10
1801.606117365081
 20
125.850428241135
 30
0.0
 10
1808.091779436167
 20
125.5830085431467
 30
0.0
 10
1814.576158381889
 20
125.2908455537815
 30
0.0
 10
1821.055230465652
 20
124.9989216726899
 30
0.0
 10
1827.533365601254
 20
124.6822743813686
 30
0.0
 10
1834.009756711795
 20
124.3374224154365
 30
0.0
 10
1840.479086191117
 20
123.9929464640732
 30
0.0
 10
1846.94713269054
 20
123.6203253814704
 30
0.0
 10
1853.412988892158
 20
123.2174319902758
 30
0.0
 10
1859.871523682551
 20
122.8149948028858
 30
0.0
 10
1866.328407210398
 20
122.3822142089064
 30
0.0
 10
1872.782703914349
 20
121.9182518076823
 30
0.0
 10
1879.25472337521
 20
121.4530154190311
 30
0.0
 10
1885.724752571748
 20
120.9565376140515
 30
0.0
 10
1892.191772418499
 20
120.4277456172704
 30
0.0
 10
1898.657822422966
 20
119.8990329220603
 30
0.0
 10
1905.121497047419
 20
119.3378696870129
 30
0.0
 10
1911.581664507056
 20
118.7429489086699
 30
0.0
 10
1918.041698423217
 20
118.1480404284273
 30
0.0
 10
1924.498913902744
 20
117.5193386300296
 30
0.0
 10
1930.952191659611
 20
116.8564548462023
 30
0.0
 10
1937.40570430013
 20
116.193546935014
 30
0.0
 10
1943.855942420925
 20
115.4963837006962
 30
0.0
 10
1950.302650134575
 20
114.7713204660295
 30
0.0
 10
1956.748542952516
 20
114.046348882938
 30
0.0
 10
1963.191511472245
 20
113.2934159085557
 30
0.0
 10
1969.630439645429
 20
112.509811758815
 30
0.0
 10
1976.068207432701
 20
111.7263488256233
 30
0.0
 10
1982.502486963009
 20
110.9121586958267
 30
0.0
 10
1988.932221215308
 20
110.0661653819543
 30
0.0
 10
1995.360558109441
 20
109.2203559257066
 30
0.0
 10
2001.784977485398
 20
108.3426740483455
 30
0.0
 10
2008.204243942111
 20
107.4314621925741
 30
0.0
 10
2014.621841667045
 20
106.5204872124948
 30
0.0
 10
2021.034975900512
 20
105.5759042764644
 30
0.0
 10
2027.442286696762
 20
104.5961063346181
 30
0.0
 10
2033.847622293367
 20
103.6166104378271
 30
0.0
 10
2040.24789919409
 20
102.6017957504412
 30
0.0
 10
2046.641579968131
 20
101.5498537947835
 30
0.0
 10
2053.032946772394
 20
100.4982925528304
 30
0.0
 10
2059.418573193875
 20
99.40952558278423
 30
0.0
 10
2065.796759194304
 20
98.28175294508378
 30
0.0
 10
2072.172245706663
 20
97.15445762315676
 30
0.0
 10
2078.54121602016
 20
95.98788858086209
 30
0.0
 10
2084.901746632916
 20
94.78008864794242
 30
0.0
 10
2091.278187933585
 20
93.56926743755957
 30
0.0
 10
2097.647252509174
 20
92.31707519758675
 30
0.0
 10
2104.00675666251
 20
91.02130684595818
 30
0.0
 10
2110.36614874145
 20
89.72556132982982
 30
0.0
 10
2116.717056668798
 20
88.3854913467826
 30
0.0
 10
2123.057100151786
 20
86.99931483046976
 30
0.0
 10
2129.446456918187
 20
85.60235654024746
 30
0.0
 10
2135.826321753983
 20
84.15913821176377
 30
0.0
 10
2142.193594136256
 20
82.66594639026152
 30
0.0
 10
2148.51760142062
 20
81.18290068572696
 30
0.0
 10
2154.830483206422
 20
79.64935955788656
 30
0.0
 10
2161.129252516718
 20
78.06384911408259
 30
0.0
 10
2167.427360504219
 20
76.4785051367976
 30
0.0
 10
2173.713184800347
 20
74.84119831265093
 30
0.0
 10
2179.982954676858
 20
73.14859382066265
 30
0.0
 10
2186.251300921722
 20
71.4563736562286
 30
0.0
 10
2192.502702789013
 20
69.7090277813918
 30
0.0
 10
2198.738986520624
 20
67.90218343110269
 30
0.0
 10
2204.969867978913
 20
66.09690428654358
 30
0.0
 10
2211.185715732137
 20
64.23221287845604
 30
0.0
 10
2217.380107415524
 20
62.3053978460166
 30
0.0
 10
2223.570361863432
 20
60.37986973373381
 30
0.0
 10
2229.738395470321
 20
58.39254779731414
 30
0.0
 10
2235.886988654335
 20
56.33781821462753
 30
0.0
 10
2242.041646070036
 20
54.28106209418297
 30
0.0
 10
2248.167460878287
 20
52.15989422724965
 30
0.0
 10
2254.274427146877
 20
49.96552392972126
 30
0.0
 10
2260.392957939225
 20
47.76699823877334
 30
0.0
 10
2266.495116700728
 20
45.49407687331791
 30
0.0
 10
2272.558719596763
 20
43.14823257503758
 30
0.0
  0
SPLINE
  5
6E
330
1F
100
AcDbEntity
  8
Default
100
AcDbSpline
210
0.0
220
0.0
230
1.0
 70
     8
 71
     3
 72
     8
 73
     4
 74
     0
 42
0.0000000001
 43
0.0000000001
 40
603.9878785635789
 40
603.9878785635789
 40
603.9878785635789
 40
603.9878785635789
 40
719.4111229567625
 40
719.4111229567625
 40
719.4111229567625
 40
719.4111229567625
 10
2272.558719596763
 20
43.14823257503758
 30
0.0
 10
2264.020017990266
 20
5.633203792527183
 30
0.0
 10
2255.501210597873
 20
-31.88627346416615
 30
0.0
 10
2247.002291954038
 20
-69.41023611548667
 30
0.0
  0
SPLINE
  5
6F
330
1F
100
AcDbEntity
  8
Default
100
AcDbSpline
210
0.0
220
0.0
230
1.0
 70
     8
 71
     3
 72
     8
 73
     4
 74
     0
 42
0.0000000001
 43
0.0000000001
 40
719.4111229567625
 40
719.4111229567625
 40
719.4111229567625
 40
719.4111229567625
 40
834.6949439380576
 40
834.6949439380576
 40
834.6949439380576
 40
834.6949439380576
 10
2247.002291954038
 20
-69.41023611548667
 30
0.0
 10
2216.883261658705
 20
-93.27549559652675
 30
0.0
 10
2186.765090100996
 20
-117.141838973434
 30
0.0
 10
2156.647781954444
 20
-141.0092892012128
 30
0.0
  0
SPLINE
  5
70
330
1F
100
AcDbEntity
  8
Default
100
AcDbSpline
210
0.0
220
0.0
230
1.0
 70
     8
 71
     3
 72
    92
 73
    88
 74
     0
 42
0.0000000001
 43
0.0000000001
 40
834.6949439380576
 40
834.6949439380576
 40
834.6949439380576
 40
834.6949439380576
 40
851.1867326340844
 40
851.1867326340844
 40
851.1867326340844
 40
867.6995624610732
 40
867.6995624610732
 40
867.6995624610732
 40
884.2282485305755
 40
884.2282485305755
 40
884.2282485305755
 40
900.7603915911214
 40
900.7603915911214
 40
900.7603915911214
 40
917.2722996822815
 40
917.2722996822815
 40
917.2722996822815
 40
933.7945560810668
 40
933.7945560810668
 40
933.7945560810668
 40
950.314602296377
 40
950.314602296377
 40
950.314602296377
 40
966.8404443586498
 40
966.8404443586498
 40
966.8404443586498
 40
983.2927525968112
 40
983.2927525968112
 40
983.2927525968112
 40
999.8127952546376
 40
999.8127952546376
 40
999.8127952546376
 40
1016.33118719126
 40
1016.33118719126
 40
1016.33118719126
 40
1032.850970538635
 40
1032.850970538635
 40
1032.850970538635
 40
1049.369568316838
 40
1049.369568316838
 40
1049.369568316838
 40
1065.877360558131
 40
1065.877360558131
 40
1065.877360558131
 40
1082.400908509425
 40
1082.400908509425
 40
1082.400908509425
 40
1098.917022664725
 40
1098.917022664725
 40
1098.917022664725
 40
1115.437347520673
 40
1115.437347520673
 40
1115.437347520673
 40
1131.940430294793
 40
1131.940430294793
 40
1131.940430294793
 40
1148.46311792532
 40
1148.46311792532
 40
1148.46311792532
 40
1164.982168567987
 40
1164.982168567987
 40
1164.982168567987
 40
1181.501479286282
 40
1181.501479286282
 40
1181.501479286282
 40
1197.995085922778
 40
1197.995085922778
 40
1197.995085922778
 40
1214.510019916816
 40
1214.510019916816
 40
1214.510019916816
 40
1231.032562231973
 40
1231.032562231973
 40
1231.032562231973
 40
1247.553810610297
 40
1247.553810610297
 40
1247.553810610297
 40
1264.077507578617
 40
1264.077507578617
 40
1264.077507578617
 40
1280.580666590572
 40
1280.580666590572
 40
1280.580666590572
 40
1297.107737236241
 40
1297.107737236241
 40
1297.107737236241
 40
1313.615751065365
 40
1313.615751065365
 40
1313.615751065365
 40
1313.615751065365
 10
2156.647781954444
 20
-141.0092892012128
 30
0.0
 10
2151.165634624967
 20
-140.6028497390328
 30
0.0
 10
2145.682003661699
 20
-140.212410951651
 30
0.0
 10
2140.195718855212
 20
-139.8680363196941
 30
0.0
 10
2134.70284319174
 20
-139.5232479790016
 30
0.0
 10
2129.20551519502
 20
-139.2244696461062
 30
0.0
 10
2123.707363865747
 20
-138.9773435441882
 30
0.0
 10
2118.203533142326
 20
-138.7299621698241
 30
0.0
 10
2112.696822017836
 20
-138.534249760974
 30
0.0
 10
2107.190031381427
 20
-138.3743821844462
 30
0.0
 10
2101.681713156822
 20
-138.2144702605221
 30
0.0
 10
2096.172128872821
 20
-138.090361990721
 30
0.0
 10
2090.662586046361
 20
-137.9864741489973
 30
0.0
 10
2085.159615471693
 20
-137.8827102335374
 30
0.0
 10
2079.656208898173
 20
-137.7991547465226
 30
0.0
 10
2074.15281504371
 20
-137.7231624285055
 30
0.0
 10
2068.645923752452
 20
-137.6471218169561
 30
0.0
 10
2063.138922322692
 20
-137.5786267696692
 30
0.0
 10
2057.631915098919
 20
-137.5117930011568
 30
0.0
 10
2052.1256442255
 20
-137.4449681690896
 30
0.0
 10
2046.61932822107
 20
-137.3798234429878
 30
0.0
 10
2041.112878245716
 20
-137.3307650843951
 30
0.0
 10
2035.604499493426
 20
-137.2816895418398
 30
0.0
 10
2030.095925027146
 20
-137.2486272988338
 30
0.0
 10
2024.587398206562
 20
-137.2265612244614
 30
0.0
 10
2019.103347651126
 20
-137.20459319719
 30
0.0
 10
2013.619226370465
 20
-137.1936348061754
 30
0.0
 10
2008.135145679737
 20
-137.1907415962839
 30
0.0
 10
2002.628469815579
 20
-137.187836465966
 30
0.0
 10
1997.121776070494
 20
-137.1929723268445
 30
0.0
 10
1991.615116739024
 20
-137.2037544600346
 30
0.0
 10
1986.108998518703
 20
-137.2145355337198
 30
0.0
 10
1980.602885853776
 20
-137.2309975395067
 30
0.0
 10
1975.096794737428
 20
-137.2505656675171
 30
0.0
 10
1969.590235616555
 20
-137.2701354587716
 30
0.0
 10
1964.083685872543
 20
-137.2928055090547
 30
0.0
 10
1958.577146629827
 20
-137.3171469752131
 30
0.0
 10
1953.071001321524
 20
-137.3414866999983
 30
0.0
 10
1947.564862955079
 20
-137.3674978957356
 30
0.0
 10
1942.058729470834
 20
-137.3943313686393
 30
0.0
 10
1936.556197435276
 20
-137.4211472903201
 30
0.0
 10
1931.053669303754
 20
-137.4487854986949
 30
0.0
 10
1925.551143302218
 20
-137.4768014150222
 30
0.0
 10
1920.043365380555
 20
-137.5048440713147
 30
0.0
 10
1914.535589363461
 20
-137.5332641797263
 30
0.0
 10
1909.027813985021
 20
-137.5618000915304
 30
0.0
 10
1903.522516489399
 20
-137.5903231653663
 30
0.0
 10
1898.017219593629
 20
-137.6189623092987
 30
0.0
 10
1892.511922859163
 20
-137.6476317516403
 30
0.0
 10
1887.005222575413
 20
-137.6763085031209
 30
0.0
 10
1881.49852244885
 20
-137.7050154778249
 30
0.0
 10
1875.99182244348
 20
-137.7337456153057
 30
0.0
 10
1870.490869720378
 20
-137.7624457674581
 30
0.0
 10
1864.989917117958
 20
-137.7911690694025
 30
0.0
 10
1859.48896422075
 20
-137.8198358299508
 30
0.0
 10
1853.981476460262
 20
-137.8485366452101
 30
0.0
 10
1848.473988404714
 20
-137.8771809328723
 30
0.0
 10
1842.966500220331
 20
-137.905800243416
 30
0.0
 10
1837.460224348819
 20
-137.9344132542531
 30
0.0
 10
1831.953948345485
 20
-137.9630012063446
 30
0.0
 10
1826.447671728636
 20
-137.9914703168388
 30
0.0
 10
1820.94130842534
 20
-138.0199398755281
 30
0.0
 10
1815.434944487903
 20
-138.048291117339
 30
0.0
 10
1809.928578428334
 20
-138.0762208950778
 30
0.0
 10
1804.430780298507
 20
-138.1041072139599
 30
0.0
 10
1798.932979924611
 20
-138.1315717313348
 30
0.0
 10
1793.435175993791
 20
-138.1582811062442
 30
0.0
 10
1787.930263031877
 20
-138.1850250181756
 30
0.0
 10
1782.425346112701
 20
-138.2110135868306
 30
0.0
 10
1776.920424110887
 20
-138.2358003161451
 30
0.0
 10
1771.412966008742
 20
-138.2605984646279
 30
0.0
 10
1765.905501807985
 20
-138.2841933265322
 30
0.0
 10
1760.398031246887
 20
-138.3059771624235
 30
0.0
 10
1754.890991851554
 20
-138.3277592929139
 30
0.0
 10
1749.383944099002
 20
-138.3477292956613
 30
0.0
 10
1743.876890858695
 20
-138.3655100436197
 30
0.0
 10
1738.369021092084
 20
-138.3832934279149
 30
0.0
 10
1732.861142312285
 20
-138.3988918361704
 30
0.0
 10
1727.353259235129
 20
-138.4115513782444
 30
0.0
 10
1721.852221369519
 20
-138.424195187006
 30
0.0
 10
1716.351174727358
 20
-138.4338965607772
 30
0.0
 10
1710.850128281587
 20
-138.4412937745365
 30
0.0
 10
1705.341111132983
 20
-138.4487017064373
 30
0.0
 10
1699.83208486959
 20
-138.4538145997917
 30
0.0
 10
1694.323065185293
 20
-138.4523448336558
 30
0.0
 10
1688.820395564195
 20
-138.4508767616705
 30
0.0
 10
1683.317727431088
 20
-138.4428227282467
 30
0.0
 10
1677.815057446333
 20
-138.4427819553675
 30
0.0
  0
SPLINE
  5
71
330
1F
100
AcDbEntity
  8
Default
100
AcDbSpline
210
0.0
220
0.0
230
1.0
 70
     8
 71
     3
 72
    98
 73
    94
 74
     0
 42
0.0000000001
 43
0.0000000001
 40
0.0
 40
0.0
 40
0.0
 40
0.0
 40
17.87988006969425
 40
17.87988006969425
 40
17.87988006969425
 40
35.38942649927432
 40
35.38942649927432
 40
35.38942649927432
 40
52.89545864341531
 40
52.89545864341531
 40
52.89545864341531
 40
70.38995719177484
 40
70.38995719177484
 40
70.38995719177484
 40
87.87064088199962
 40
87.87064088199962
 40
87.87064088199962
 40
105.3256188159991
 40
105.3256188159991
 40
105.3256188159991
 40
122.7752676875299
 40
122.7752676875299
 40
122.7752676875299
 40
140.2257220482407
 40
140.2257220482407
 40
140.2257220482407
 40
157.6807615182431
 40
157.6807615182431
 40
157.6807615182431
 40
175.1360328052086
 40
175.1360328052086
 40
175.1360328052086
 40
192.6406595443054
 40
192.6406595443054
 40
192.6406595443054
 40
210.1461416157961
 40
210.1461416157961
 40
210.1461416157961
 40
227.6471467366195
 40
227.6471467366195
 40
227.6471467366195
 40
245.1406138920205
 40
245.1406138920205
 40
245.1406138920205
 40
262.630436805243
 40
262.630436805243
 40
262.630436805243
 40
280.1164424114575
 40
280.1164424114575
 40
280.1164424114575
 40
297.5979392107611
 40
297.5979392107611
 40
297.5979392107611
 40
315.0740893525735
 40
315.0740893525735
 40
315.0740893525735
 40
332.5439691124988
 40
332.5439691124988
 40
332.5439691124988
 40
350.0065068584964
 40
350.0065068584964
 40
350.0065068584964
 40
367.4605244664698
 40
367.4605244664698
 40
367.4605244664698
 40
384.9473957118124
 40
384.9473957118124
 40
384.9473957118124
 40
402.4306401055973
 40
402.4306401055973
 40
402.4306401055973
 40
420.0214643308749
 40
420.0214643308749
 40
420.0214643308749
 40
437.5093682066694
 40
437.5093682066694
 40
437.5093682066694
 40
454.9903624107146
 40
454.9903624107146
 40
454.9903624107146
 40
472.4601066017846
 40
472.4601066017846
 40
472.4601066017846
 40
489.9141121639521
 40
489.9141121639521
 40
489.9141121639521
 40
507.3475787706419
 40
507.3475787706419
 40
507.3475787706419
 40
524.7831351512268
 40
524.7831351512268
 40
524.7831351512268
 40
542.2463098693122
 40
542.2463098693122
 40
542.2463098693122
 40
542.2463098693122
 10
1677.815057446328
 20
93.31513930721144
 30
0.0
 10
1683.728058244908
 20
93.31362455545195
 30
0.0
 10
1689.780529167286
 20
93.15499211513179
 30
0.0
 10
1695.691074448127
 20
93.00974537557317
 30
0.0
 10
1701.525808954122
 20
92.86636162281957
 30
0.0
 10
1707.360848832732
 20
92.73294847974967
 30
0.0
 10
1713.194827727778
 20
92.56191084830402
 30
0.0
 10
1719.027575991398
 20
92.39090929588565
 30
0.0
 10
1724.859523291018
 20
92.18260420592105
 30
0.0
 10
1730.689854974738
 20
91.94647088085435
 30
0.0
 10
1736.516509512536
 20
91.71048648328224
 30
0.0
 10
1742.342277362818
 20
91.4464507720104
 30
0.0
 10
1748.166099719198
 20
91.15085740454174
 30
0.0
 10
1753.985425060068
 20
90.85549228715922
 30
0.0
 10
1759.803431483054
 20
90.52866090250131
 30
0.0
 10
1765.619088056005
 20
90.17028394022304
 30
0.0
 10
1771.426340737016
 20
89.81242484918198
 30
0.0
 10
1777.231826642072
 20
89.42301571042117
 30
0.0
 10
1783.035640761507
 20
89.01443231401777
 30
0.0
 10
1788.83780810036
 20
88.60596484951498
 30
0.0
 10
1794.638696415888
 20
88.1783350495325
 30
0.0
 10
1800.438503796319
 20
87.7380863162241
 30
0.0
 10
1806.238626118406
 20
87.2978136764898
 30
0.0
 10
1812.037820466475
 20
86.84490454227716
 30
0.0
 10
1817.83627837232
 20
86.38342395886548
 30
0.0
 10
1823.636280057046
 20
85.9218205110667
 30
0.0
 10
1829.435616322763
 20
85.45164362304104
 30
0.0
 10
1835.234351385752
 20
84.97449103929966
 30
0.0
 10
1841.033172158695
 20
84.49733140286071
 30
0.0
 10
1846.831433218385
 20
84.01317089504073
 30
0.0
 10
1852.62897738752
 20
83.52082909081832
 30
0.0
 10
1858.442920248089
 20
83.02709466912006
 30
0.0
 10
1864.256188192666
 20
82.5251626147301
 30
0.0
 10
1870.068623312029
 20
82.01409331627951
 30
0.0
 10
1875.881350909521
 20
81.50299830113909
 30
0.0
 10
1881.693297459164
 20
80.98273971287654
 30
0.0
 10
1887.504339198301
 20
80.45294463263576
 30
0.0
 10
1893.313904089021
 20
79.92328419727642
 30
0.0
 10
1899.122633080622
 20
79.38409241443674
 30
0.0
 10
1904.930177625879
 20
78.83287397916956
 30
0.0
 10
1910.735216918106
 20
78.2818933279857
 30
0.0
 10
1916.539227273054
 20
77.71887852199302
 30
0.0
 10
1922.340343057041
 20
77.12845157406309
 30
0.0
 10
1928.140263970808
 20
76.53814623783751
 30
0.0
 10
1933.937594620667
 20
75.9204107395094
 30
0.0
 10
1939.731739876503
 20
75.27672355096001
 30
0.0
 10
1945.524713962161
 20
74.63316647085708
 30
0.0
 10
1951.315006372629
 20
73.9636115474575
 30
0.0
 10
1957.101654138831
 20
73.26623509333695
 30
0.0
 10
1962.886895536768
 20
72.56902812734734
 30
0.0
 10
1968.669008288878
 20
71.84395094848469
 30
0.0
 10
1974.447022890517
 20
71.0899988600363
 30
0.0
 10
1980.223368406856
 20
70.33626456445177
 30
0.0
 10
1985.996190064702
 20
69.55359877348997
 30
0.0
 10
1991.764391937733
 20
68.74070068567357
 30
0.0
 10
1997.530629897398
 20
67.928079367196
 30
0.0
 10
2003.292874379607
 20
67.08515228386045
 30
0.0
 10
2009.049905405773
 20
66.21051768887764
 30
0.0
 10
2014.804633550658
 20
65.33623295819552
 30
0.0
 10
2020.554840757765
 20
64.43018546594408
 30
0.0
 10
2026.299209494975
 20
63.4910929912935
 30
0.0
 10
2032.040901853894
 20
62.55243805239843
 30
0.0
 10
2037.777503121978
 20
61.58055179841949
 30
0.0
 10
2043.507438258688
 20
60.57349710125322
 30
0.0
 10
2049.248300886486
 20
59.56452186206275
 30
0.0
 10
2054.983341545705
 20
58.52028239666902
 30
0.0
 10
2060.710984826394
 20
57.43969806811697
 30
0.0
 10
2066.43759292806
 20
56.35930903773124
 30
0.0
 10
2072.157679271459
 20
55.24205808558122
 30
0.0
 10
2077.869126619323
 20
54.08516740046593
 30
0.0
 10
2083.6158960997
 20
52.92112198843211
 30
0.0
 10
2089.35509362678
 20
51.71733608587692
 30
0.0
 10
2095.084783338852
 20
50.47294659461318
 30
0.0
 10
2100.781143967668
 20
49.23579560369421
 30
0.0
 10
2106.469144370201
 20
47.95768953627271
 30
0.0
 10
2112.146293451371
 20
46.63622492244463
 30
0.0
 10
2117.82141385647
 20
45.31523252162424
 30
0.0
 10
2123.487047376574
 20
43.95090142239178
 30
0.0
 10
2129.140461232352
 20
42.54100187911877
 30
0.0
 10
2134.790474564878
 20
41.13195038912841
 30
0.0
 10
2140.429708698482
 20
39.67693983860954
 30
0.0
 10
2146.05509345362
 20
38.17374090508133
 30
0.0
 10
2151.675271820405
 20
36.67193320748811
 30
0.0
 10
2157.284143859619
 20
35.12137905131522
 30
0.0
 10
2162.876786756669
 20
33.52003914248985
 30
0.0
 10
2168.463981401214
 20
31.92025923031156
 30
0.0
 10
2174.034674694659
 20
30.2698795037436
 30
0.0
 10
2179.590604468651
 20
28.56464771063997
 30
0.0
 10
2185.148056200086
 20
26.85894879676198
 30
0.0
 10
2190.684355448214
 20
25.10032610575877
 30
0.0
 10
2196.206064851809
 20
23.28220287868317
 30
0.0
 10
2201.732702559245
 20
21.46245691795207
 30
0.0
 10
2207.247110672414
 20
19.58231833083323
 30
0.0
 10
2212.732916963778
 20
17.64290965730925
 30
0.0
  0
SPLINE
  5
72
330
1F
100
AcDbEntity
  8
Default
100
AcDbSpline
210
0.0
220
0.0
230
1.0
 70
     8
 71
     3
 72
     8
 73
     4
 74
     0
 42
0.0000000001
 43
0.0000000001
 40
542.2463098693122
 40
542.2463098693122
 40
542.2463098693122
 40
542.2463098693122
 40
619.6225898661775
 40
619.6225898661775
 40
619.6225898661775
 40
619.6225898661775
 10
2212.732916963778
 20
17.64290965730925
 30
0.0
 10
2208.518810869277
 20
-7.802791559239267
 30
0.0
 10
2204.318708492518
 20
-33.25059741577047
 30
0.0
 10
2200.13162518533
 20
-58.70052852583126
 30
0.0
  0
SPLINE
  5
73
330
1F
100
AcDbEntity
  8
Default
100
AcDbSpline
210
0.0
220
0.0
230
1.0
 70
     8
 71
     3
 72
     8
 73
     4
 74
     0
 42
0.0000000001
 43
0.0000000001
 40
619.6225898661775
 40
619.6225898661775
 40
619.6225898661775
 40
619.6225898661775
 40
692.5029457951773
 40
692.5029457951773
 40
692.5029457951773
 40
692.5029457951773
 10
2200.13162518533
 20
-58.70052852583126
 30
0.0
 10
2183.679584349418
 20
-76.57515190385038
 30
0.0
 10
2167.228000208867
 20
-94.45019566548058
 30
0.0
 10
2150.777061000805
 20
-112.3263177011511
 30
0.0
  0
SPLINE
  5
74
330
1F
100
AcDbEntity
  8
Default
100
AcDbSpline
210
0.0
220
0.0
230
1.0
 70
     8
 71
     3
 72
    92
 73
    88
 74
     0
 42
0.0000000001
 43
0.0000000001
 40
692.5029457951773
 40
692.5029457951773
 40
692.5029457951773
 40
692.5029457951773
 40
708.8716982609261
 40
708.8716982609261
 40
708.8716982609261
 40
725.2553920191862
 40
725.2553920191862
 40
725.2553920191862
 40
741.6303556618743
 40
741.6303556618743
 40
741.6303556618743
 40
758.0106631793532
 40
758.0106631793532
 40
758.0106631793532
 40
774.3599738490025
 40
774.3599738490025
 40
774.3599738490025
 40
790.7633630114565
 40
790.7633630114565
 40
790.7633630114565
 40
807.1540283722692
 40
807.1540283722692
 40
807.1540283722692
 40
823.5651099952536
 40
823.5651099952536
 40
823.5651099952536
 40
839.7468185891476
 40
839.7468185891476
 40
839.7468185891476
 40
856.1435754064594
 40
856.1435754064594
 40
856.1435754064594
 40
872.5515356135402
 40
872.5515356135402
 40
872.5515356135402
 40
888.9637460615413
 40
888.9637460615413
 40
888.9637460615413
 40
905.3774997897933
 40
905.3774997897933
 40
905.3774997897933
 40
921.79246974943
 40
921.79246974943
 40
921.79246974943
 40
938.2037979851643
 40
938.2037979851643
 40
938.2037979851643
 40
954.6145302085235
 40
954.6145302085235
 40
954.6145302085235
 40
971.0226366165457
 40
971.0226366165457
 40
971.0226366165457
 40
987.4314095895418
 40
987.4314095895418
 40
987.4314095895418
 40
1003.834572770276
 40
1003.834572770276
 40
1003.834572770276
 40
1020.236436152255
 40
1020.236436152255
 40
1020.236436152255
 40
1036.636180010399
 40
1036.636180010399
 40
1036.636180010399
 40
1052.963875147524
 40
1052.963875147524
 40
1052.963875147524
 40
1069.352407994287
 40
1069.352407994287
 40
1069.352407994287
 40
1085.785914861255
 40
1085.785914861255
 40
1085.785914861255
 40
1102.174926646328
 40
1102.174926646328
 40
1102.174926646328
 40
1118.563757153458
 40
1118.563757153458
 40
1118.563757153458
 40
1134.955523969888
 40
1134.955523969888
 40
1134.955523969888
 40
1151.385773396069
 40
1151.385773396069
 40
1151.385773396069
 40
1167.763571127983
 40
1167.763571127983
 40
1167.763571127983
 40
1167.763571127983
 10
2150.777061000805
 20
-112.3263177011511
 30
0.0
 10
2145.691904631704
 20
-110.3501497157688
 30
0.0
 10
2140.569649675286
 20
-108.4693411254814
 30
0.0
 10
2135.384139470324
 20
-106.7712505567185
 30
0.0
 10
2130.196927256297
 20
-105.0726026338234
 30
0.0
 10
2124.94447377262
 20
-103.5561633507828
 30
0.0
 10
2119.645982711728
 20
-102.2443892016843
 30
0.0
 10
2114.346807815592
 20
-100.9324457520463
 30
0.0
 10
2109.003112183602
 20
-99.8255993369446
 30
0.0
 10
2103.62635802666
 20
-98.88342830664442
 30
0.0
 10
2098.251747896773
 20
-97.94163297516229
 30
0.0
 10
2092.83969240112
 20
-97.16360708197249
 30
0.0
 10
2087.422883987531
 20
-96.50988713921788
 30
0.0
 10
2082.006932260385
 20
-95.85627058446721
 30
0.0
 10
2076.59365316606
 20
-95.32781651131631
 30
0.0
 10
2071.15607101981
 20
-94.891630186964
 30
0.0
 10
2065.712293544191
 20
-94.45494689210614
 30
0.0
 10
2060.24215995611
 20
-94.11058344480193
 30
0.0
 10
2054.787634644331
 20
-93.84141345111289
 30
0.0
 10
2049.324650184939
 20
-93.57182601528552
 30
0.0
 10
2043.876563612568
 20
-93.37764249783777
 30
0.0
 10
2038.409599501522
 20
-93.21153327428306
 30
0.0
 10
2032.941824350564
 20
-93.04539940794575
 30
0.0
 10
2027.47297698833
 20
-92.90753439358468
 30
0.0
 10
2022.003935212256
 20
-92.7950547026528
 30
0.0
 10
2016.611214731796
 20
-92.68414468262381
 30
0.0
 10
2011.21783746375
 20
-92.59872589351608
 30
0.0
 10
2005.824479783773
 20
-92.53011559197193
 30
0.0
 10
2000.359355643766
 20
-92.46059233068058
 30
0.0
 10
1994.893956628363
 20
-92.40771430716086
 30
0.0
 10
1989.428569090793
 20
-92.36747401192974
 30
0.0
 10
1983.959408596161
 20
-92.32720593734939
 30
0.0
 10
1978.490116309361
 20
-92.29981682776565
 30
0.0
 10
1973.020854763519
 20
-92.28198756603933
 30
0.0
 10
1967.550153432283
 20
-92.26415361075283
 30
0.0
 10
1962.079399801617
 20
-92.2558400584694
 30
0.0
 10
1956.608679764279
 20
-92.25500603122373
 30
0.0
 10
1951.137432525913
 20
-92.2541719236051
 30
0.0
 10
1945.666171129761
 20
-92.26082892200748
 30
0.0
 10
1940.19494436129
 20
-92.27329938613502
 30
0.0
 10
1934.723304297116
 20
-92.28577079227966
 30
0.0
 10
1929.251669623666
 20
-92.30405332439409
 30
0.0
 10
1923.780066687823
 20
-92.32685959537935
 30
0.0
 10
1918.30967288915
 20
-92.3496608265416
 30
0.0
 10
1912.839293246886
 20
-92.37698606959952
 30
0.0
 10
1907.36894090853
 20
-92.40778336124276
 30
0.0
 10
1901.898784348461
 20
-92.43857955068233
 30
0.0
 10
1896.428644630142
 20
-92.472846283129
 30
0.0
 10
1890.958526863123
 20
-92.50970240056336
 30
0.0
 10
1885.489282647435
 20
-92.54655263225413
 30
0.0
 10
1880.020054449422
 20
-92.58599236441364
 30
0.0
 10
1874.550842481281
 20
-92.62725907878257
 30
0.0
 10
1869.081407390891
 20
-92.66852747667076
 30
0.0
 10
1863.611985415636
 20
-92.71162225399166
 30
0.0
 10
1858.14257425948
 20
-92.7559081374568
 30
0.0
 10
1852.675032505718
 20
-92.80017888434963
 30
0.0
 10
1847.207500165253
 20
-92.84564033117431
 30
0.0
 10
1841.739973187609
 20
-92.89168554074922
 30
0.0
 10
1836.272879275558
 20
-92.9377271032281
 30
0.0
 10
1830.805790250409
 20
-92.98435241553898
 30
0.0
 10
1825.338701843909
 20
-93.03104101407553
 30
0.0
 10
1819.872319889862
 20
-93.0777235795515
 30
0.0
 10
1814.405938475416
 20
-93.12447041343671
 30
0.0
 10
1808.939553670179
 20
-93.17081766625756
 30
0.0
 10
1803.497184264015
 20
-93.2169613022802
 30
0.0
 10
1798.054811355625
 20
-93.26270465024618
 30
0.0
 10
1792.612432032903
 20
-93.3076582013166
 30
0.0
 10
1787.149774172445
 20
-93.35277925123796
 30
0.0
 10
1781.687109465248
 20
-93.39710787824492
 30
0.0
 10
1776.224435600045
 20
-93.44023164097189
 30
0.0
 10
1770.746770805617
 20
-93.48347374597779
 30
0.0
 10
1765.269095922738
 20
-93.5255084374312
 30
0.0
 10
1759.791410518846
 20
-93.56602280511675
 30
0.0
 10
1754.32855626377
 20
-93.60642747781776
 30
0.0
 10
1748.865689795751
 20
-93.6453119849757
 30
0.0
 10
1743.402810590707
 20
-93.6821271008987
 30
0.0
 10
1737.939991463206
 20
-93.71894181195034
 30
0.0
 10
1732.477157315661
 20
-93.7536938821288
 30
0.0
 10
1727.014313893408
 20
-93.78661958216435
 30
0.0
 10
1721.550491620599
 20
-93.81955118193673
 30
0.0
 10
1716.086655073916
 20
-93.85064264490143
 30
0.0
 10
1710.62279901058
 20
-93.87713604395617
 30
0.0
 10
1705.146114194528
 20
-93.90369164766298
 30
0.0
 10
1699.669407059126
 20
-93.92564840524597
 30
0.0
 10
1694.192717922222
 20
-93.95127220801373
 30
0.0
 10
1688.73352571979
 20
-93.97681414781891
 30
0.0
 10
1683.274296364987
 20
-94.00590411991789
 30
0.0
 10
1677.815057446332
 20
-94.00579368146668
 30
0.0
  0
SPLINE
  5
75
330
1F
100
AcDbEntity
  8
Default
100
AcDbSpline
210
0.0
220
0.0
230
1.0
 70
     8
 71
     3
 72
    36
 73
    32
 74
     0
 42
0.0000000001
 43
0.0000000001
 40
-11570.59311973518
 40
-11570.59311973518
 40
-11570.59311973518
 40
-11570.59311973518
 40
-11549.42826265005
 40
-11528.26340114285
 40
-11507.09853963564
 40
-11485.93367812844
 40
-11464.76881662123
 40
-11443.60395511403
 40
-11422.43909360682
 40
-11401.27423209961
 40
-11380.10937059241
 40
-11358.9445090852
 40
-11337.779647578
 40
-11316.61478607079
 40
-11295.44992456359
 40
-11274.28506305638
 40
-11253.12020154917
 40
-11231.95534004197
 40
-11210.79047853476
 40
-11189.62561702756
 40
-11168.46075552035
 40
-11147.29589401315
 40
-11126.13103250594
 40
-11104.96617099873
 40
-11083.80130949153
 40
-11062.63644798432
 40
-11041.47158647712
 40
-11020.30672496991
 40
-10999.14186346271
 40
-10977.9770019555
 40
-10956.8121404483
 40
-10956.8121404483
 40
-10956.8121404483
 40
-10956.8121404483
 10
1677.81505356646
 20
-47.45583035881646
 30
0.0
 10
1671.625132621661
 20
-47.45596662888852
 30
0.0
 10
1659.277989870142
 20
-47.43206375099817
 30
0.0
 10
1640.714124635501
 20
-47.25052021868532
 30
0.0
 10
1622.215839176894
 20
-46.93479177668678
 30
0.0
 10
1603.633966425762
 20
-46.47297418620246
 30
0.0
 10
1585.108004879531
 20
-45.86403465797503
 30
0.0
 10
1566.589227320241
 20
-45.09814527350727
 30
0.0
 10
1548.064937180161
 20
-44.16913555386873
 30
0.0
 10
1529.555109670699
 20
-43.06879007766338
 30
0.0
 10
1511.054502237514
 20
-41.78839428960509
 30
0.0
 10
1492.569502919902
 20
-40.31880780842539
 30
0.0
 10
1474.101475169294
 20
-38.64888607097282
 30
0.0
 10
1455.6520500114
 20
-36.76739213066298
 30
0.0
 10
1437.228404298935
 20
-34.6611641474808
 30
0.0
 10
1418.833110005546
 20
-32.31583291698416
 30
0.0
 10
1400.4717800947
 20
-29.71500943590308
 30
0.0
 10
1382.152429898584
 20
-26.840833097614
 30
0.0
 10
1363.877392029693
 20
-23.67144554947436
 30
0.0
 10
1345.669483686859
 20
-20.18625657955658
 30
0.0
 10
1327.523738329766
 20
-16.35507478713293
 30
0.0
 10
1309.454425544905
 20
-12.14603752565881
 30
0.0
 10
1291.508134500236
 20
-7.533149413575075
 30
0.0
 10
1273.657861867741
 20
-2.457383363034296
 30
0.0
 10
1255.970956631495
 20
3.112649526924315
 30
0.0
 10
1238.468605489449
 20
9.246064560937612
 30
0.0
 10
1221.195993174139
 20
16.00403097756316
 30
0.0
 10
1204.219719074763
 20
23.47286477518514
 30
0.0
 10
1187.61497754498
 20
31.74666553717407
 30
0.0
 10
1171.502968983387
 20
40.94058842368986
 30
0.0
 10
1161.18827654262
 20
47.77414650130981
 30
0.0
 10
1156.176802063628
 20
51.39023142452015
 30
0.0
  0
SPLINE
  5
76
330
1F
100
AcDbEntity
  8
Default
100
AcDbSpline
210
0.0
220
0.0
230
1.0
 70
    28
 71
     3
 72
     8
 73
     4
 74
     0
 42
0.0000000001
 43
0.0000000001
 40
-10956.8121404483
 40
-10956.8121404483
 40
-10956.8121404483
 40
-10956.8121404483
 40
-10092.75195735918
 40
-10092.75195735918
 40
-10092.75195735918
 40
-10092.75195735918
 10
1156.176802063628
 20
51.39023142452015
 30
0.0
 41
1.0
 10
1167.835383761196
 20
25.07514702143379
 30
0.0
 41
0.9999999994848215
 10
1179.493965458769
 20
-1.23993738165255
 30
0.0
 41
0.999999999484821
 10
1191.152547156341
 20
-27.55502178473853
 30
0.0
 41
1.0
  0
SPLINE
  5
77
330
1F
100
AcDbEntity
  8
Default
100
AcDbSpline
210
0.0
220
0.0
230
1.0
 70
    24
 71
     2
 72
     6
 73
     3
 74
     0
 42
0.0000000001
 43
0.0000000001
 40
-10092.75195735918
 40
-10092.75195735918
 40
-10092.75195735918
 40
-8938.239073065546
 40
-8938.239073065546
 40
-8938.239073065546
 10
1191.152547156341
 20
-27.55502178473853
 30
0.0
 10
1243.616164795406
 20
-51.53838984830975
 30
0.0
 10
1296.079782434471
 20
-75.52175791188097
 30
0.0
  0
SPLINE
  5
78
330
1F
100
AcDbEntity
  8
Default
100
AcDbSpline
210
0.0
220
0.0
230
1.0
 70
     8
 71
     3
 72
    36
 73
    32
 74
     0
 42
0.0000000001
 43
0.0000000001
 40
-8938.239073065546
 40
-8938.239073065546
 40
-8938.239073065546
 40
-8938.239073065546
 40
-8923.305846081732
 40
-8908.372619097916
 40
-8893.439392114102
 40
-8878.506165130286
 40
-8863.572938146472
 40
-8848.639711162657
 40
-8833.706484178841
 40
-8818.773257195027
 40
-8803.840030211213
 40
-8788.906803227397
 40
-8773.973576243583
 40
-8759.040349259769
 40
-8744.107122275953
 40
-8729.173895292139
 40
-8714.240668308323
 40
-8699.307441324509
 40
-8684.374214340694
 40
-8669.440987356878
 40
-8654.507760373064
 40
-8639.57453338925
 40
-8624.641306405434
 40
-8609.70807942162
 40
-8594.774852437804
 40
-8579.84162545399
 40
-8564.908398470176
 40
-8549.97517148636
 40
-8535.041944502545
 40
-8520.108717518731
 40
-8505.175494927622
 40
-8505.175494927622
 40
-8505.175494927622
 40
-8505.175494927622
 10
1296.079782434471
 20
-75.52175791188097
 30
0.0
 10
1300.418166370088
 20
-76.22997214478596
 30
0.0
 10
1309.11449958707
 20
-77.53082968246986
 30
0.0
 10
1322.184464652785
 20
-79.26726785928099
 30
0.0
 10
1335.274720232774
 20
-80.86970703861448
 30
0.0
 10
1348.37360880213
 20
-82.38350403061213
 30
0.0
 10
1361.469688335904
 20
-83.92883234100668
 30
0.0
 10
1374.568649794266
 20
-85.45524601101965
 30
0.0
 10
1387.730189631624
 20
-86.35423279312727
 30
0.0
 10
1400.901868031824
 20
-86.89768559056233
 30
0.0
 10
1414.092094307116
 20
-87.25811628554402
 30
0.0
 10
1427.26912614781
 20
-87.51210251264524
 30
0.0
 10
1440.455564010619
 20
-87.70007520404397
 30
0.0
 10
1453.642279300633
 20
-87.84858486922462
 30
0.0
 10
1466.828450699009
 20
-87.96980583467871
 30
0.0
 10
1480.014737452669
 20
-88.0708811766549
 30
0.0
 10
1493.201119371702
 20
-88.15624057532636
 30
0.0
 10
1506.388731838945
 20
-88.22890981086061
 30
0.0
 10
1519.57062136154
 20
-88.2910236532698
 30
0.0
 10
1532.77526358513
 20
-88.34430350684624
 30
0.0
 10
1545.941168779821
 20
-88.38978388577539
 30
0.0
 10
1559.136404709549
 20
-88.42874532613928
 30
0.0
 10
1572.320942379875
 20
-88.4619149418204
 30
0.0
 10
1585.510232255527
 20
-88.4901906045402
 30
0.0
 10
1598.685839943298
 20
-88.51446212332189
 30
0.0
 10
1611.891061550459
 20
-88.5362950202632
 30
0.0
 10
1625.065963502653
 20
-88.55361416498363
 30
0.0
 10
1638.255149220425
 20
-88.56378051293746
 30
0.0
 10
1651.443067536021
 20
-88.5583212414108
 30
0.0
 10
1664.624471311123
 20
-88.54235478588862
 30
0.0
 10
1673.418445929452
 20
-88.51274950667539
 30
0.0
 10
1677.815053566459
 20
-88.51274894630706
 30
0.0
  0
SPLINE
  5
79
330
1F
100
AcDbEntity
  8
Default
100
AcDbSpline
210
0.0
220
0.0
230
1.0
 70
     8
 71
     3
 72
    92
 73
    88
 74
     0
 42
0.0000000001
 43
0.0000000001
 40
0.0
 40
0.0
 40
0.0
 40
0.0
 40
20.3672374245665
 40
20.3672374245665
 40
20.3672374245665
 40
40.73513950034578
 40
40.73513950034578
 40
40.73513950034578
 40
61.09730752336998
 40
61.09730752336998
 40
61.09730752336998
 40
81.47018452848317
 40
81.47018452848317
 40
81.47018452848317
 40
101.8375637164157
 40
101.8375637164157
 40
101.8375637164157
 40
122.2029030459947
 40
122.2029030459947
 40
122.2029030459947
 40
142.5702872899866
 40
142.5702872899866
 40
142.5702872899866
 40
162.9376225620886
 40
162.9376225620886
 40
162.9376225620886
 40
183.3051843846539
 40
183.3051843846539
 40
183.3051843846539
 40
203.6726887026379
 40
203.6726887026379
 40
203.6726887026379
 40
224.0403510551056
 40
224.0403510551056
 40
224.0403510551056
 40
244.4084266539816
 40
244.4084266539816
 40
244.4084266539816
 40
264.7765113776698
 40
264.7765113776698
 40
264.7765113776698
 40
285.1458226997758
 40
285.1458226997758
 40
285.1458226997758
 40
305.5134817184667
 40
305.5134817184667
 40
305.5134817184667
 40
325.8823125039809
 40
325.8823125039809
 40
325.8823125039809
 40
346.2517804328479
 40
346.2517804328479
 40
346.2517804328479
 40
366.6194862431354
 40
366.6194862431354
 40
366.6194862431354
 40
386.9906506264783
 40
386.9906506264783
 40
386.9906506264783
 40
407.3613621910285
 40
407.3613621910285
 40
407.3613621910285
 40
427.728781989592
 40
427.728781989592
 40
427.728781989592
 40
448.1023798442855
 40
448.1023798442855
 40
448.1023798442855
 40
468.472776569167
 40
468.472776569167
 40
468.472776569167
 40
488.843841811418
 40
488.843841811418
 40
488.843841811418
 40
509.2152023022643
 40
509.2152023022643
 40
509.2152023022643
 40
529.5860283098484
 40
529.5860283098484
 40
529.5860283098484
 40
549.9576039149715
 40
549.9576039149715
 40
549.9576039149715
 40
570.3285400132385
 40
570.3285400132385
 40
570.3285400132385
 40
590.6994652975139
 40
590.6994652975139
 40
590.6994652975139
 40
590.6994652975139
 10
1677.815057446332
 20
-38.9990341144628
 30
0.0
 10
1671.025993584304
 20
-38.99912915655568
 30
0.0
 10
1664.236867222838
 20
-38.98844026752568
 30
0.0
 10
1657.447902870793
 20
-38.95664780193351
 30
0.0
 10
1650.658704873952
 20
-38.92485424219149
 30
0.0
 10
1643.86950742506
 20
-38.87200179257184
 30
0.0
 10
1637.080666314709
 20
-38.79966646805838
 30
0.0
 10
1630.293689693892
 20
-38.72735100974205
 30
0.0
 10
1623.506821377526
 20
-38.6355279581453
 30
0.0
 10
1616.72044585585
 20
-38.52250008279316
 30
0.0
 10
1609.930458926816
 20
-38.4094120590305
 30
0.0
 10
1603.140717300097
 20
-38.27512255946522
 30
0.0
 10
1596.3516195758
 20
-38.1195970852566
 30
0.0
 10
1589.564306309776
 20
-37.96411248963454
 30
0.0
 10
1582.777362464099
 20
-37.7873782012316
 30
0.0
 10
1575.991259090468
 20
-37.58769324248101
 30
0.0
 10
1569.205787573359
 20
-37.38802687646853
 30
0.0
 10
1562.420854141715
 20
-37.16540853104971
 30
0.0
 10
1555.637019536829
 20
-36.91795660918478
 30
0.0
 10
1548.852447790669
 20
-36.67047779883683
 30
0.0
 10
1542.068622491008
 20
-36.39815035098491
 30
0.0
 10
1535.286200739542
 20
-36.09910509449651
 30
0.0
 10
1528.503729645768
 20
-35.8000576624454
 30
0.0
 10
1521.722252430472
 20
-35.47427109616137
 30
0.0
 10
1514.942537207527
 20
-35.11978089789773
 30
0.0
 10
1508.162670289826
 20
-34.76528276798763
 30
0.0
 10
1501.384092762129
 20
-34.38205603664846
 30
0.0
 10
1494.607690078219
 20
-33.9681503726224
 30
0.0
 10
1487.83121876725
 20
-33.55424051682553
 30
0.0
 10
1481.056378508135
 20
-33.10961693318359
 30
0.0
 10
1474.284209284089
 20
-32.63201945851256
 30
0.0
 10
1467.511887079681
 20
-32.15441119512207
 30
0.0
 10
1460.741610630395
 20
-31.64378284313648
 30
0.0
 10
1453.974586837818
 20
-31.09779430720755
 30
0.0
 10
1447.207308429707
 20
-30.5517852279545
 30
0.0
 10
1440.442567275912
 20
-29.97035664318082
 30
0.0
 10
1433.681695541045
 20
-29.35163507825587
 30
0.0
 10
1426.920689328683
 20
-28.73290120661545
 30
0.0
 10
1420.162728545965
 20
-28.07679318926648
 30
0.0
 10
1413.409530954452
 20
-27.37960884778363
 30
0.0
 10
1406.655776549573
 20
-26.68236702218996
 30
0.0
 10
1399.905836646027
 20
-25.94395077253648
 30
0.0
 10
1393.161545005321
 20
-25.16216659364977
 30
0.0
 10
1386.417620648457
 20
-24.38042498953814
 30
0.0
 10
1379.67823757621
 20
-23.55518175820816
 30
0.0
 10
1372.945632922799
 20
-22.68305789553051
 30
0.0
 10
1366.212439526368
 20
-21.8108577686337
 30
0.0
 10
1359.484755374831
 20
-20.89160818016671
 30
0.0
 10
1352.765165843325
 20
-19.92199002044777
 30
0.0
 10
1346.045130809118
 20
-18.95230757592253
 30
0.0
 10
1339.331712342119
 20
-17.93203993589827
 30
0.0
 10
1332.627955961752
 20
-16.85749946277519
 30
0.0
 10
1325.924509250903
 20
-15.78300862636479
 30
0.0
 10
1319.229000190275
 20
-14.65395558855357
 30
0.0
 10
1312.545121332612
 20
-13.46585609864792
 30
0.0
 10
1305.859808516449
 20
-12.27750171403272
 30
0.0
 10
1299.184484187488
 20
-11.02980512383624
 30
0.0
 10
1292.522296620722
 20
-9.717907731229616
 30
0.0
 10
1285.860354580121
 20
-8.40605868687635
 30
0.0
 10
1279.21033811758
 20
-7.029775262863723
 30
0.0
 10
1272.576098404679
 20
-5.584253659140813
 30
0.0
 10
1265.942141128612
 20
-4.138793595030165
 30
0.0
 10
1259.325057374274
 20
-2.624340505798955
 30
0.0
 10
1252.724679028007
 20
-1.032435782485209
 30
0.0
 10
1246.123559720501
 20
0.5596476487201016
 30
0.0
 10
1239.539155982136
 20
2.229198578266505
 30
0.0
 10
1232.978728372513
 20
3.981533540107193
 30
0.0
 10
1226.418486050027
 20
5.733819010489924
 30
0.0
 10
1219.881347593554
 20
7.569116444073643
 30
0.0
 10
1213.370548370497
 20
9.497172869649148
 30
0.0
 10
1206.860032554229
 20
11.4251453693862
 30
0.0
 10
1200.376539769963
 20
13.4456655997792
 30
0.0
 10
1193.926980218832
 20
15.56884101047581
 30
0.0
 10
1187.477415224966
 20
17.69201821290449
 30
0.0
 10
1181.06140272547
 20
19.91797612424034
 30
0.0
 10
1174.687678465529
 20
22.25924519741625
 30
0.0
 10
1168.314192155924
 20
24.6004268639615
 30
0.0
 10
1161.983095088052
 20
27.05687280468487
 30
0.0
 10
1155.705571615285
 20
29.64469835137083
 30
0.0
 10
1149.428292444386
 20
32.23242318786129
 30
0.0
 10
1143.204434920985
 20
34.95157829614482
 30
0.0
 10
1137.050370703826
 20
37.82045150799399
 30
0.0
 10
1130.896652308025
 20
40.68916350644213
 30
0.0
 10
1124.812691815623
 20
43.70758956488453
 30
0.0
 10
1118.821038613898
 20
46.90162730411407
 30
0.0
 10
1112.830656889899
 20
50.09498724245918
 30
0.0
 10
1106.931453029772
 20
53.46446514564968
 30
0.0
 10
1101.160244420174
 20
57.03963304823287
 30
0.0
  0
SPLINE
  5
7A
330
1F
100
AcDbEntity
  8
Default
100
AcDbSpline
210
0.0
220
0.0
230
1.0
 70
     8
 71
     3
 72
     8
 73
     4
 74
     0
 42
0.0000000001
 43
0.0000000001
 40
590.6994652975139
 40
590.6994652975139
 40
590.6994652975139
 40
590.6994652975139
 40
701.17015494629
 40
701.17015494629
 40
701.17015494629
 40
701.17015494629
 10
1101.160244420174
 20
57.03963304823287
 30
0.0
 10
1115.828655584636
 20
23.26341199413127
 30
0.0
 10
1130.496197328685
 20
-10.51288189133925
 30
0.0
 10
1145.163121965969
 20
-44.28944369905571
 30
0.0
  0
SPLINE
  5
7B
330
1F
100
AcDbEntity
  8
Default
100
AcDbSpline
210
0.0
220
0.0
230
1.0
 70
     8
 71
     3
 72
     8
 73
     4
 74
     0
 42
0.0000000001
 43
0.0000000001
 40
701.17015494629
 40
701.17015494629
 40
701.17015494629
 40
701.17015494629
 40
835.7957253128546
 40
835.7957253128546
 40
835.7957253128546
 40
835.7957253128546
 10
1145.163121965969
 20
-44.28944369905571
 30
0.0
 10
1186.409224477072
 20
-61.96829309458985
 30
0.0
 10
1227.655144832528
 20
-79.64756749282446
 30
0.0
 10
1268.900882307573
 20
-97.32726829845205
 30
0.0
  0
SPLINE
  5
7C
330
1F
100
AcDbEntity
  8
Default
100
AcDbSpline
210
0.0
220
0.0
230
1.0
 70
     8
 71
     3
 72
    92
 73
    88
 74
     0
 42
0.0000000001
 43
0.0000000001
 40
835.7957253128546
 40
835.7957253128546
 40
835.7957253128546
 40
835.7957253128546
 40
849.9228345880035
 40
849.9228345880035
 40
849.9228345880035
 40
864.0491706834823
 40
864.0491706834823
 40
864.0491706834823
 40
878.1756523765196
 40
878.1756523765196
 40
878.1756523765196
 40
892.301816603411
 40
892.301816603411
 40
892.301816603411
 40
906.4165479091233
 40
906.4165479091233
 40
906.4165479091233
 40
920.5541826106164
 40
920.5541826106164
 40
920.5541826106164
 40
934.6809062903092
 40
934.6809062903092
 40
934.6809062903092
 40
948.7998778995603
 40
948.7998778995603
 40
948.7998778995603
 40
962.9334709013995
 40
962.9334709013995
 40
962.9334709013995
 40
977.0579153856681
 40
977.0579153856681
 40
977.0579153856681
 40
991.1838124575828
 40
991.1838124575828
 40
991.1838124575828
 40
1005.309367677397
 40
1005.309367677397
 40
1005.309367677397
 40
1019.434659560576
 40
1019.434659560576
 40
1019.434659560576
 40
1033.559797727219
 40
1033.559797727219
 40
1033.559797727219
 40
1047.684775286421
 40
1047.684775286421
 40
1047.684775286421
 40
1061.809707515211
 40
1061.809707515211
 40
1061.809707515211
 40
1075.9345971266
 40
1075.9345971266
 40
1075.9345971266
 40
1090.060627037081
 40
1090.060627037081
 40
1090.060627037081
 40
1104.183722425807
 40
1104.183722425807
 40
1104.183722425807
 40
1118.308969160044
 40
1118.308969160044
 40
1118.308969160044
 40
1132.433767467521
 40
1132.433767467521
 40
1132.433767467521
 40
1146.558259257972
 40
1146.558259257972
 40
1146.558259257972
 40
1160.681787714325
 40
1160.681787714325
 40
1160.681787714325
 40
1174.808957602681
 40
1174.808957602681
 40
1174.808957602681
 40
1188.932088997953
 40
1188.932088997953
 40
1188.932088997953
 40
1203.085010318217
 40
1203.085010318217
 40
1203.085010318217
 40
1217.181268927479
 40
1217.181268927479
 40
1217.181268927479
 40
1231.305138100672
 40
1231.305138100672
 40
1231.305138100672
 40
1245.430428372377
 40
1245.430428372377
 40
1245.430428372377
 40
1245.430428372377
 10
1268.900882307573
 20
-97.32726829845205
 30
0.0
 10
1273.549366862259
 20
-98.07942252861062
 30
0.0
 10
1278.207574068984
 20
-98.77127269740822
 30
0.0
 10
1282.870741914396
 20
-99.42567489498674
 30
0.0
 10
1287.533725579296
 20
-100.0800512457297
 30
0.0
 10
1292.202275722015
 20
-100.697063171574
 30
0.0
 10
1296.873239256806
 20
-101.2905285437262
 30
0.0
 10
1301.544471305063
 20
-101.8840280316333
 30
0.0
 10
1306.218822279785
 20
-102.4540662963198
 30
0.0
 10
1310.894874575819
 20
-103.007731798348
 30
0.0
 10
1315.570922486193
 20
-103.561396781095
 30
0.0
 10
1320.248910565487
 20
-104.098721033879
 30
0.0
 10
1324.92598275424
 20
-104.6436144802935
 30
0.0
 10
1329.599282057548
 20
-105.188068373827
 30
0.0
 10
1334.271700887026
 20
-105.7400941137682
 30
0.0
 10
1338.945428843435
 20
-106.2808593532479
 30
0.0
 10
1343.62475649598
 20
-106.8222724954403
 30
0.0
 10
1348.310909314344
 20
-107.3530442551025
 30
0.0
 10
1353.003112276321
 20
-107.7731710577466
 30
0.0
 10
1357.693841425363
 20
-108.1931658992796
 30
0.0
 10
1362.391712035755
 20
-108.5026773318225
 30
0.0
 10
1367.094084354034
 20
-108.7556894797642
 30
0.0
 10
1371.794639858253
 20
-109.0086038736374
 30
0.0
 10
1376.494888627483
 20
-109.2048078484511
 30
0.0
 10
1381.19925528293
 20
-109.3702500896363
 30
0.0
 10
1385.907475466326
 20
-109.5358278509343
 30
0.0
 10
1390.61698495633
 20
-109.6705281807933
 30
0.0
 10
1395.326569766827
 20
-109.7870797908581
 30
0.0
 10
1400.033252384962
 20
-109.9035595782027
 30
0.0
 10
1404.740461293426
 20
-110.0018814250079
 30
0.0
 10
1409.447753738976
 20
-110.0882728124723
 30
0.0
 10
1414.155582919488
 20
-110.1746740504561
 30
0.0
 10
1418.863663218802
 20
-110.2491609199712
 30
0.0
 10
1423.571794346289
 20
-110.3160051571374
 30
0.0
 10
1428.27983337428
 20
-110.3828480867105
 30
0.0
 10
1432.987997310695
 20
-110.4420463384249
 30
0.0
 10
1437.696204487302
 20
-110.4950594232378
 30
0.0
 10
1442.404333554345
 20
-110.5480716285592
 30
0.0
 10
1447.112542547943
 20
-110.5948999517391
 30
0.0
 10
1451.82077741798
 20
-110.6369346042957
 30
0.0
 10
1456.528967228743
 20
-110.6789688545671
 30
0.0
 10
1461.2372063567
 20
-110.7162096518011
 30
0.0
 10
1465.945462858123
 20
-110.7495171649946
 30
0.0
 10
1470.653669583068
 20
-110.7828243260558
 30
0.0
 10
1475.361908568087
 20
-110.812198362363
 30
0.0
 10
1480.070158573258
 20
-110.8383096429172
 30
0.0
 10
1484.778395998928
 20
-110.8644208537069
 30
0.0
 10
1489.486654603018
 20
-110.8872695113948
 30
0.0
 10
1494.194920002817
 20
-110.9073813259533
 30
0.0
 10
1498.903172940391
 20
-110.9274930872784
 30
0.0
 10
1503.611439752098
 20
-110.9448677006312
 30
0.0
 10
1508.31971049576
 20
-110.9599340373468
 30
0.0
 10
1513.028362570774
 20
-110.9750015943118
 30
0.0
 10
1517.737023559928
 20
-110.987761281923
 30
0.0
 10
1522.445686526185
 20
-110.9986040481845
 30
0.0
 10
1527.153372199549
 20
-111.0094445640073
 30
0.0
 10
1531.861063318063
 20
-111.0183679592421
 30
0.0
 10
1536.568755206383
 20
-111.0257386697369
 30
0.0
 10
1541.277164812128
 20
-111.0331105039431
 30
0.0
 10
1545.985577520788
 20
-111.038929956703
 30
0.0
 10
1550.69399035684
 20
-111.0434985973279
 30
0.0
 10
1555.40225407105
 20
-111.0480670932582
 30
0.0
 10
1560.110519631761
 20
-111.0513844755824
 30
0.0
 10
1564.818784908404
 20
-111.0532530298417
 30
0.0
 10
1569.526948277701
 20
-111.0551215436576
 30
0.0
 10
1574.235112878238
 20
-111.0555416428606
 30
0.0
 10
1578.943276224315
 20
-111.0546468812329
 30
0.0
 10
1583.651118829977
 20
-111.05375218056
 30
0.0
 10
1588.358961588131
 20
-111.0515420940824
 30
0.0
 10
1593.066803074676
 20
-111.0484701986036
 30
0.0
 10
1597.775858603094
 20
-111.0453975109551
 30
0.0
 10
1602.484913949822
 20
-111.0414640699908
 30
0.0
 10
1607.19396749362
 20
-111.0363067295477
 30
0.0
 10
1611.901674994215
 20
-111.0311508632865
 30
0.0
 10
1616.609381644079
 20
-111.0247672737282
 30
0.0
 10
1621.317085682279
 20
-111.0172166057528
 30
0.0
 10
1626.034719716278
 20
-111.0096500110963
 30
0.0
 10
1630.752353305241
 20
-111.0009235371795
 30
0.0
 10
1635.469978709314
 20
-110.9893671733739
 30
0.0
 10
1640.168717122461
 20
-110.9778570754158
 30
0.0
 10
1644.867449255793
 20
-110.963514108473
 30
0.0
 10
1649.566179318143
 20
-110.9491316471981
 30
0.0
 10
1654.2741117097
 20
-110.9347210182823
 30
0.0
 10
1658.982052166777
 20
-110.9202722394689
 30
0.0
 10
1663.68994412316
 20
-110.8964755321233
 30
0.0
 10
1668.398295471039
 20
-110.8726765027179
 30
0.0
 10
1673.106655069195
 20
-110.8395116686143
 30
0.0
 10
1677.815057446334
 20
-110.8395121880776
 30
0.0
  0
SPLINE
  5
7D
330
1F
100
AcDbEntity
  8
Default
100
AcDbSpline
210
0.0
220
0.0
230
1.0
 70
     8
 71
     3
 72
    92
 73
    88
 74
     0
 42
0.0000000001
 43
0.0000000001
 40
0.0
 40
0.0
 40
0.0
 40
0.0
 40
21.89939077484014
 40
21.89939077484014
 40
21.89939077484014
 40
43.7987209613454
 40
43.7987209613454
 40
43.7987209613454
 40
65.69876425426409
 40
65.69876425426409
 40
65.69876425426409
 40
87.59750075131393
 40
87.59750075131393
 40
87.59750075131393
 40
109.496863708956
 40
109.496863708956
 40
109.496863708956
 40
131.3965707380168
 40
131.3965707380168
 40
131.3965707380168
 40
153.296192360781
 40
153.296192360781
 40
153.296192360781
 40
175.1957521536467
 40
175.1957521536467
 40
175.1957521536467
 40
197.095333390075
 40
197.095333390075
 40
197.095333390075
 40
218.9949819592597
 40
218.9949819592597
 40
218.9949819592597
 40
240.8946871569155
 40
240.8946871569155
 40
240.8946871569155
 40
262.7944210493412
 40
262.7944210493412
 40
262.7944210493412
 40
284.6942516463599
 40
284.6942516463599
 40
284.6942516463599
 40
306.5929579917144
 40
306.5929579917144
 40
306.5929579917144
 40
328.4941628169758
 40
328.4941628169758
 40
328.4941628169758
 40
350.3943358305293
 40
350.3943358305293
 40
350.3943358305293
 40
372.2944594961924
 40
372.2944594961924
 40
372.2944594961924
 40
394.1936791825277
 40
394.1936791825277
 40
394.1936791825277
 40
416.0953788646973
 40
416.0953788646973
 40
416.0953788646973
 40
437.9953817285526
 40
437.9953817285526
 40
437.9953817285526
 40
459.8945908295938
 40
459.8945908295938
 40
459.8945908295938
 40
481.7968306030605
 40
481.7968306030605
 40
481.7968306030605
 40
503.6968522697086
 40
503.6968522697086
 40
503.6968522697086
 40
525.5978274117697
 40
525.5978274117697
 40
525.5978274117697
 40
547.4990828879461
 40
547.4990828879461
 40
547.4990828879461
 40
569.4003868353122
 40
569.4003868353122
 40
569.4003868353122
 40
591.3023193859598
 40
591.3023193859598
 40
591.3023193859598
 40
613.2050325042766
 40
613.2050325042766
 40
613.2050325042766
 40
635.1090107001875
 40
635.1090107001875
 40
635.1090107001875
 40
635.1090107001875
 10
1677.815057446331
 20
-30.54223786272519
 30
0.0
 10
1670.515272261429
 20
-30.54230739543482
 30
0.0
 10
1663.215439556876
 20
-30.53215155101839
 30
0.0
 10
1655.915730552295
 20
-30.50334725577045
 30
0.0
 10
1648.616031224588
 20
-30.47454299870697
 30
0.0
 10
1641.316333957077
 20
-30.42711255362497
 30
0.0
 10
1634.016897875045
 20
-30.36242900711227
 30
0.0
 10
1626.717190186059
 20
-30.29774305376964
 30
0.0
 10
1619.417562322472
 20
-30.21579500743496
 30
0.0
 10
1612.118298119262
 20
-30.11492315179203
 30
0.0
 10
1604.819438358768
 20
-30.01405688532691
 30
0.0
 10
1597.520762017571
 20
-29.89426591174902
 30
0.0
 10
1590.222552483915
 20
-29.75592942224557
 30
0.0
 10
1582.924099306156
 20
-29.61758831450379
 30
0.0
 10
1575.625912244339
 20
-29.46069766440223
 30
0.0
 10
1568.328343675477
 20
-29.28325416373332
 30
0.0
 10
1561.03062775738
 20
-29.10580708020507
 30
0.0
 10
1553.73330409989
 20
-28.90780055281016
 30
0.0
 10
1546.436834735098
 20
-28.686501560019
 30
0.0
 10
1539.140352933106
 20
-28.46520219001309
 30
0.0
 10
1531.844443689072
 20
-28.22060137659901
 30
0.0
 10
1524.549672249136
 20
-27.95033473963645
 30
0.0
 10
1517.254868616628
 20
-27.68006690995958
 30
0.0
 10
1509.960853754381
 20
-27.38411989934343
 30
0.0
 10
1502.668319848853
 20
-27.05995923033879
 30
0.0
 10
1495.375714153173
 20
-26.73579537018782
 30
0.0
 10
1488.084169197849
 20
-26.38339838717388
 30
0.0
 10
1480.794507365789
 20
-26.00035134635004
 30
0.0
 10
1473.504745069728
 20
-25.61729902648335
 30
0.0
 10
1466.216364400258
 20
-25.20356911426256
 30
0.0
 10
1458.930356288614
 20
-24.75643781615986
 30
0.0
 10
1451.64423695407
 20
-24.30929969247609
 30
0.0
 10
1444.359896815191
 20
-23.82872260276804
 30
0.0
 10
1437.078512879306
 20
-23.31189482069931
 30
0.0
 10
1429.797007370353
 20
-22.79505840945512
 30
0.0
 10
1422.517767031342
 20
-22.24191967178558
 30
0.0
 10
1415.242069268441
 20
-21.65065632466576
 30
0.0
 10
1407.966213062548
 20
-21.05938010159412
 30
0.0
 10
1400.693087053253
 20
-20.42991446332599
 30
0.0
 10
1393.424459048235
 20
-19.75738652093492
 30
0.0
 10
1386.156057881642
 20
-19.08487956671092
 30
0.0
 10
1378.891209438249
 20
-18.36921594228852
 30
0.0
 10
1371.631714171205
 20
-17.60847713444832
 30
0.0
 10
1364.371207727754
 20
-16.84763236316167
 30
0.0
 10
1357.114931532875
 20
-16.04159327614252
 30
0.0
 10
1349.865157296273
 20
-15.18644238152569
 30
0.0
 10
1342.615522343855
 20
-14.33130791624717
 30
0.0
 10
1335.371106491058
 20
-13.42690108753322
 30
0.0
 10
1328.134487367105
 20
-12.46987675636251
 30
0.0
 10
1320.897644625047
 20
-11.51282285227035
 30
0.0
 10
1313.667097298002
 20
-10.50295581983823
 30
0.0
 10
1306.445895533577
 20
-9.43639112944129
 30
0.0
 10
1299.22471767395
 20
-8.369829969760076
 30
0.0
 10
1292.011140804505
 20
-7.246300138128618
 30
0.0
 10
1284.808837953119
 20
-6.061197025994716
 30
0.0
 10
1277.605480074812
 20
-4.875920314428186
 30
0.0
 10
1270.411544437325
 20
-3.628766219465433
 30
0.0
 10
1263.230469874253
 20
-2.31513148199133
 30
0.0
 10
1256.049715067661
 20
-1.001555237603952
 30
0.0
 10
1248.881207170169
 20
0.3786078648256535
 30
0.0
 10
1241.72706006899
 20
1.830208118952896
 30
0.0
 10
1234.573008885751
 20
3.281788911010835
 30
0.0
 10
1227.434108101108
 20
4.80464465189948
 30
0.0
 10
1220.312099988839
 20
6.406182804479386
 30
0.0
 10
1213.189719021511
 20
8.007804801614384
 30
0.0
 10
1206.083967400082
 20
9.68817707112953
 30
0.0
 10
1199.000069153183
 20
11.45232806458807
 30
0.0
 10
1191.916391944213
 20
13.2164240114796
 30
0.0
 10
1184.854250394346
 20
15.06437223040166
 30
0.0
 10
1177.816670284
 20
17.00434886331436
 30
0.0
 10
1170.779173407894
 20
18.94430255190832
 30
0.0
 10
1163.766651477175
 20
20.97616832941685
 30
0.0
 10
1156.785285217219
 20
23.10948456710958
 30
0.0
 10
1149.803851291743
 20
25.24282148155021
 30
0.0
 10
1142.853332941581
 20
27.47768437657214
 30
0.0
 10
1135.940751843921
 20
29.82474423519989
 30
0.0
 10
1129.028287678194
 20
32.1717643914003
 30
0.0
 10
1122.153803912424
 20
34.63096262359477
 30
0.0
 10
1115.327361965767
 20
37.21782979960994
 30
0.0
 10
1108.501007990323
 20
39.80466363910136
 30
0.0
 10
1101.722662912614
 20
42.51917513051103
 30
0.0
 10
1095.005742587039
 20
45.37851891949072
 30
0.0
 10
1088.288788845215
 20
48.23787693352278
 30
0.0
 10
1081.633404016852
 20
51.2420075914431
 30
0.0
 10
1075.060093723007
 20
54.4183047272586
 30
0.0
 10
1068.487558129874
 20
57.59422751901639
 30
0.0
 10
1061.996068990845
 20
60.94276338099758
 30
0.0
 10
1055.620148029433
 20
64.49788625085012
 30
0.0
  0
SPLINE
  5
7E
330
1F
100
AcDbEntity
  8
Default
100
AcDbSpline
210
0.0
220
0.0
230
1.0
 70
     8
 71
     3
 72
     8
 73
     4
 74
     0
 42
0.0000000001
 43
0.0000000001
 40
635.1090107001875
 40
635.1090107001875
 40
635.1090107001875
 40
635.1090107001875
 40
768.1548118673521
 40
768.1548118673521
 40
768.1548118673521
 40
768.1548118673521
 10
1055.620148029433
 20
64.49788625085012
 30
0.0
 10
1072.540888948303
 20
23.50317321174953
 30
0.0
 10
1089.459434713748
 20
-17.49147496241903
 30
0.0
 10
1106.376120661321
 20
-58.48689121783968
 30
0.0
  0
SPLINE
  5
7F
330
1F
100
AcDbEntity
  8
Default
100
AcDbSpline
210
0.0
220
0.0
230
1.0
 70
     8
 71
     3
 72
     8
 73
     4
 74
     0
 42
0.0000000001
 43
0.0000000001
 40
768.1548118673521
 40
768.1548118673521
 40
768.1548118673521
 40
768.1548118673521
 40
918.1728805732009
 40
918.1728805732009
 40
918.1728805732009
 40
918.1728805732009
 10
1106.376120661321
 20
-58.48689121783968
 30
0.0
 10
1152.490648507137
 20
-77.82733195808737
 30
0.0
 10
1198.605167377062
 20
-97.16779410012259
 30
0.0
 10
1244.719891843209
 20
-116.5080442386136
 30
0.0
  0
SPLINE
  5
80
330
1F
100
AcDbEntity
  8
Default
100
AcDbSpline
210
0.0
220
0.0
230
1.0
 70
     8
 71
     3
 72
    92
 73
    88
 74
     0
 42
0.0000000001
 43
0.0000000001
 40
918.1728805732009
 40
918.1728805732009
 40
918.1728805732009
 40
918.1728805732009
 40
933.1355060140199
 40
933.1355060140199
 40
933.1355060140199
 40
948.0980808383684
 40
948.0980808383684
 40
948.0980808383684
 40
963.0605599293148
 40
963.0605599293148
 40
963.0605599293148
 40
978.0230410400304
 40
978.0230410400304
 40
978.0230410400304
 40
992.9950777447614
 40
992.9950777447614
 40
992.9950777447614
 40
1007.948425862309
 40
1007.948425862309
 40
1007.948425862309
 40
1022.911815894244
 40
1022.911815894244
 40
1022.911815894244
 40
1037.880403617987
 40
1037.880403617987
 40
1037.880403617987
 40
1052.837497063456
 40
1052.837497063456
 40
1052.837497063456
 40
1067.800782366191
 40
1067.800782366191
 40
1067.800782366191
 40
1082.762963578433
 40
1082.762963578433
 40
1082.762963578433
 40
1097.725673500647
 40
1097.725673500647
 40
1097.725673500647
 40
1112.688362652008
 40
1112.688362652008
 40
1112.688362652008
 40
1127.6510502063
 40
1127.6510502063
 40
1127.6510502063
 40
1142.61388200837
 40
1142.61388200837
 40
1142.61388200837
 40
1157.576617878449
 40
1157.576617878449
 40
1157.576617878449
 40
1172.539370435845
 40
1172.539370435845
 40
1172.539370435845
 40
1187.5030186173
 40
1187.5030186173
 40
1187.5030186173
 40
1202.464964248443
 40
1202.464964248443
 40
1202.464964248443
 40
1217.427675746229
 40
1217.427675746229
 40
1217.427675746229
 40
1232.390438795712
 40
1232.390438795712
 40
1232.390438795712
 40
1247.353252852327
 40
1247.353252852327
 40
1247.353252852327
 40
1262.316167746461
 40
1262.316167746461
 40
1262.316167746461
 40
1277.278374746553
 40
1277.278374746553
 40
1277.278374746553
 40
1292.241568881767
 40
1292.241568881767
 40
1292.241568881767
 40
1307.230481307388
 40
1307.230481307388
 40
1307.230481307388
 40
1322.167101899782
 40
1322.167101899782
 40
1322.167101899782
 40
1337.129943085815
 40
1337.129943085815
 40
1337.129943085815
 40
1352.092628298192
 40
1352.092628298192
 40
1352.092628298192
 40
1352.092628298192
 10
1244.719891843209
 20
-116.5080442386136
 30
0.0
 10
1249.641743746634
 20
-117.3142563543311
 30
0.0
 10
1254.573280170625
 20
-118.0613710611856
 30
0.0
 10
1259.509900478732
 20
-118.7710639870431
 30
0.0
 10
1264.446574420403
 20
-119.4807646233096
 30
0.0
 10
1269.388926237809
 20
-120.153122409715
 30
0.0
 10
1274.333868461736
 20
-120.8015286435304
 30
0.0
 10
1279.278986142579
 20
-121.449957884158
 30
0.0
 10
1284.227376788755
 20
-122.0745304681184
 30
0.0
 10
1289.177735149914
 20
-122.6810797744165
 30
0.0
 10
1294.128196729258
 20
-123.2876417276614
 30
0.0
 10
1299.080868541686
 20
-123.876207362425
 30
0.0
 10
1304.032420168367
 20
-124.4737539959533
 30
0.0
 10
1308.987140168909
 20
-125.0716829846056
 30
0.0
 10
1313.940801764283
 20
-125.6786090834116
 30
0.0
 10
1318.897522396288
 20
-126.2596911972134
 30
0.0
 10
1323.848866089962
 20
-126.8401429662931
 30
0.0
 10
1328.80045384558
 20
-127.3944537303059
 30
0.0
 10
1333.765437315759
 20
-127.8471579163054
 30
0.0
 10
1338.731555346406
 20
-128.2999655508411
 30
0.0
 10
1343.709415222775
 20
-128.6509723028203
 30
0.0
 10
1348.686777177038
 20
-128.9519144329563
 30
0.0
 10
1353.667043287613
 20
-129.2530321546999
 30
0.0
 10
1358.65084308226
 20
-129.5042815018817
 30
0.0
 10
1363.635055637914
 20
-129.725014099814
 30
0.0
 10
1368.615807068224
 20
-129.9455934171265
 30
0.0
 10
1373.598109279754
 20
-130.1357091776424
 30
0.0
 10
1378.580725960583
 20
-130.3061786283652
 30
0.0
 10
1383.565542204751
 20
-130.4767233323894
 30
0.0
 10
1388.551124159187
 20
-130.6276521783307
 30
0.0
 10
1393.536948046922
 20
-130.7639500252335
 30
0.0
 10
1398.522462922663
 20
-130.9002394246522
 30
0.0
 10
1403.508431560133
 20
-131.0218936447243
 30
0.0
 10
1408.494558626304
 20
-131.1323897161299
 30
0.0
 10
1413.480894419724
 20
-131.2428904130775
 30
0.0
 10
1418.467510764838
 20
-131.3422383392297
 30
0.0
 10
1423.454239400693
 20
-131.4324193828622
 30
0.0
 10
1428.440980546226
 20
-131.5226006527228
 30
0.0
 10
1433.427909177522
 20
-131.603615445656
 30
0.0
 10
1438.414909414752
 20
-131.6773968606415
 30
0.0
 10
1443.401921998003
 20
-131.7511784582832
 30
0.0
 10
1448.389055594133
 20
-131.8177275549492
 30
0.0
 10
1453.376238818555
 20
-131.8783459072788
 30
0.0
 10
1458.363478216047
 20
-131.9389649423824
 30
0.0
 10
1463.350799131289
 20
-131.9936535358675
 30
0.0
 10
1468.338153595583
 20
-132.0434705089224
 30
0.0
 10
1473.325481524295
 20
-132.0932872169226
 30
0.0
 10
1478.312864495863
 20
-132.1382325902939
 30
0.0
 10
1483.30027020332
 20
-132.1791632304919
 30
0.0
 10
1488.287685159002
 20
-132.2200939465888
 30
0.0
 10
1493.275137339948
 20
-132.257009767013
 30
0.0
 10
1498.262604629934
 20
-132.2906663255908
 30
0.0
 10
1503.250372948155
 20
-132.3243249155751
 30
0.0
 10
1508.23816607769
 20
-132.3547245334901
 30
0.0
 10
1513.225969400453
 20
-132.3824765815205
 30
0.0
 10
1518.213206898496
 20
-132.4102254813126
 30
0.0
 10
1523.200460793406
 20
-132.4353267351014
 30
0.0
 10
1528.187720712533
 20
-132.4585253041178
 30
0.0
 10
1533.175236895772
 20
-132.4817250651636
 30
0.0
 10
1538.162763231558
 20
-132.5030223757078
 30
0.0
 10
1543.150295798735
 20
-132.5222295125923
 30
0.0
 10
1548.137846032981
 20
-132.5414367175129
 30
0.0
 10
1553.125406042676
 20
-132.5585535769421
 30
0.0
 10
1558.11297106448
 20
-132.5731738334753
 30
0.0
 10
1563.100553813092
 20
-132.5877941419722
 30
0.0
 10
1568.0881456022
 20
-132.59991795931
 30
0.0
 10
1573.075738918113
 20
-132.6099251208282
 30
0.0
 10
1578.063366830904
 20
-132.6199323517615
 30
0.0
 10
1583.051000134794
 20
-132.6278226762568
 30
0.0
 10
1588.03863362595
 20
-132.634064618821
 30
0.0
 10
1593.026031832049
 20
-132.6403062669294
 30
0.0
 10
1598.013432850845
 20
-132.6449005148288
 30
0.0
 10
1603.00083358052
 20
-132.6480962003986
 30
0.0
 10
1607.988563782567
 20
-132.6512920970786
 30
0.0
 10
1612.97629538824
 20
-132.6530862760274
 30
0.0
 10
1617.964026321002
 20
-132.6537792811146
 30
0.0
 10
1622.960330261362
 20
-132.654473477352
 30
0.0
 10
1627.956634946563
 20
-132.6540701645063
 30
0.0
 10
1632.952938287416
 20
-132.6520841843894
 30
0.0
 10
1637.93181127733
 20
-132.6501051326607
 30
0.0
 10
1642.910684050067
 20
-132.6465417653042
 30
0.0
 10
1647.889555386862
 20
-132.6422794132113
 30
0.0
 10
1652.877167105581
 20
-132.6380095785826
 30
0.0
 10
1657.86477901055
 20
-132.6330436098401
 30
0.0
 10
1662.852386921866
 20
-132.6257375276894
 30
0.0
 10
1667.839941794688
 20
-132.6184315232317
 30
0.0
 10
1672.827498130054
 20
-132.6087803665735
 30
0.0
 10
1677.815057446334
 20
-132.6087810504239
 30
0.0
  0
SPLINE
  5
81
330
1F
100
AcDbEntity
  8
Default
100
AcDbSpline
210
0.0
220
0.0
230
1.0
 70
     8
 71
     3
 72
    92
 73
    88
 74
     0
 42
0.0000000001
 43
0.0000000001
 40
0.0
 40
0.0
 40
0.0
 40
0.0
 40
23.04445894287317
 40
23.04445894287317
 40
23.04445894287317
 40
46.08891396716292
 40
46.08891396716292
 40
46.08891396716292
 40
69.13351073761255
 40
69.13351073761255
 40
69.13351073761255
 40
92.17784325942988
 40
92.17784325942988
 40
92.17784325942988
 40
115.2222168084225
 40
115.2222168084225
 40
115.2222168084225
 40
138.2667329954504
 40
138.2667329954504
 40
138.2667329954504
 40
161.311387587309
 40
161.311387587309
 40
161.311387587309
 40
184.3559099911135
 40
184.3559099911135
 40
184.3559099911135
 40
207.4004472389827
 40
207.4004472389827
 40
207.4004472389827
 40
230.4450137591836
 40
230.4450137591836
 40
230.4450137591836
 40
253.489619985721
 40
253.489619985721
 40
253.489619985721
 40
276.5342618276851
 40
276.5342618276851
 40
276.5342618276851
 40
299.5789667353061
 40
299.5789667353061
 40
299.5789667353061
 40
322.6222673404293
 40
322.6222673404293
 40
322.6222673404293
 40
345.6685996944636
 40
345.6685996944636
 40
345.6685996944636
 40
368.7136444710397
 40
368.7136444710397
 40
368.7136444710397
 40
391.7586420898166
 40
391.7586420898166
 40
391.7586420898166
 40
414.8027653482363
 40
414.8027653482363
 40
414.8027653482363
 40
437.8490304640389
 40
437.8490304640389
 40
437.8490304640389
 40
460.8940395051358
 40
460.8940395051358
 40
460.8940395051358
 40
483.9380065282153
 40
483.9380065282153
 40
483.9380065282153
 40
506.9847867613909
 40
506.9847867613909
 40
506.9847867613909
 40
530.0300739807359
 40
530.0300739807359
 40
530.0300739807359
 40
553.0755565590849
 40
553.0755565590849
 40
553.0755565590849
 40
576.1214224074589
 40
576.1214224074589
 40
576.1214224074589
 40
599.1675412088887
 40
599.1675412088887
 40
599.1675412088887
 40
622.2137005411032
 40
622.2137005411032
 40
622.2137005411032
 40
645.2608059286323
 40
645.2608059286323
 40
645.2608059286323
 40
668.3090098609744
 40
668.3090098609744
 40
668.3090098609744
 40
668.3090098609744
 10
1677.815057446331
 20
-22.08544161542568
 30
0.0
 10
1670.133581409269
 20
-22.08549144318454
 30
0.0
 10
1662.452064581419
 20
-22.07505572165815
 30
0.0
 10
1654.77065463977
 20
-22.04759968054213
 30
0.0
 10
1647.089235095767
 20
-22.02014360510384
 30
0.0
 10
1639.407819333093
 20
-21.97567061894665
 30
0.0
 10
1631.72661443265
 20
-21.91532942823324
 30
0.0
 10
1624.045335348354
 20
-21.85498765475427
 30
0.0
 10
1616.36412226663
 20
-21.77877523237726
 30
0.0
 10
1608.683202901066
 20
-21.68518622575243
 30
0.0
 10
1601.002346349082
 20
-21.5915979844865
 30
0.0
 10
1593.321640249754
 20
-21.48063163776987
 30
0.0
 10
1585.641302838014
 20
-21.35297900410819
 30
0.0
 10
1577.960924302393
 20
-21.2253256869385
 30
0.0
 10
1570.280755097909
 20
-21.08098330961047
 30
0.0
 10
1562.601084960331
 20
-20.91756016981299
 30
0.0
 10
1554.921343184865
 20
-20.75413550556345
 30
0.0
 10
1547.241915091697
 20
-20.57162562539634
 30
0.0
 10
1539.563214064627
 20
-20.36654288997488
 30
0.0
 10
1531.884434341368
 20
-20.16145805273572
 30
0.0
 10
1524.206134748944
 20
-19.93379334987731
 30
0.0
 10
1516.528844768125
 20
-19.68063993712644
 30
0.0
 10
1508.85155256107
 20
-19.42748645096708
 30
0.0
 10
1501.174945486252
 20
-19.14883298920631
 30
0.0
 10
1493.499697780046
 20
-18.84159143291504
 30
0.0
 10
1485.824385288653
 20
-18.53434728326124
 30
0.0
 10
1478.150025464632
 20
-18.19849818743273
 30
0.0
 10
1470.477442339624
 20
-17.83113854479734
 30
0.0
 10
1462.804774004539
 20
-17.46377482234379
 30
0.0
 10
1455.133381616976
 20
-17.06487540796934
 30
0.0
 10
1447.464278232504
 20
-16.63125728568411
 30
0.0
 10
1439.795069394536
 20
-16.19763320096195
 30
0.0
 10
1432.127543533312
 20
-15.72925504244358
 30
0.0
 10
1424.462918972833
 20
-15.2229308301803
 30
0.0
 10
1416.798167691277
 20
-14.71659824673748
 30
0.0
 10
1409.135601962828
 20
-14.17226955010096
 30
0.0
 10
1401.476547069844
 20
-13.58798192626386
 30
0.0
 10
1393.817341123557
 20
-13.0036827789977
 30
0.0
 10
1386.160792657134
 20
-12.37936150292421
 30
0.0
 10
1378.508797327692
 20
-11.70921988478494
 30
0.0
 10
1370.857115226141
 20
-11.03910569831987
 30
0.0
 10
1363.20898393045
 20
-10.32307544468176
 30
0.0
 10
1355.566294332406
 20
-9.559339004306139
 30
0.0
 10
1347.922402937808
 20
-8.795482468012324
 30
0.0
 10
1340.282751040152
 20
-7.983798338348834
 30
0.0
 10
1332.649761787149
 20
-7.119918051821287
 30
0.0
 10
1325.016983383829
 20
-6.256061628668704
 30
0.0
 10
1317.389498082178
 20
-5.339843645219617
 30
0.0
 10
1309.770019679541
 20
-4.367884656969636
 30
0.0
 10
1302.15029932647
 20
-3.395894804940326
 30
0.0
 10
1294.536982251169
 20
-2.367962556983457
 30
0.0
 10
1286.933287532691
 20
-1.280003407929598
 30
0.0
 10
1279.329588041206
 20
-0.1920435759400334
 30
0.0
 10
1271.733657756967
 20
0.9562211469192334
 30
0.0
 10
1264.149309383555
 20
2.169328121585522
 30
0.0
 10
1256.563937541611
 20
3.382598798755453
 30
0.0
 10
1248.988375369889
 20
4.660994367610328
 30
0.0
 10
1241.425768570536
 20
6.00899103154984
 30
0.0
 10
1233.86342272174
 20
7.356941182363698
 30
0.0
 10
1226.313450139366
 20
8.774591220755156
 30
0.0
 10
1218.778172100274
 20
10.26652628196393
 30
0.0
 10
1211.243036718989
 20
11.75843309787388
 30
0.0
 10
1203.7232535227
 20
13.32449180618369
 30
0.0
 10
1196.220422734251
 20
14.9712882660433
 30
0.0
 10
1188.71721195341
 20
16.61816813043947
 30
0.0
 10
1181.230856158231
 20
18.3458156906072
 30
0.0
 10
1173.765973405001
 20
20.15860685187477
 30
0.0
 10
1166.301218716112
 20
21.97136691367155
 30
0.0
 10
1158.857546146718
 20
23.86936240509203
 30
0.0
 10
1151.438056698026
 20
25.8594095212618
 30
0.0
 10
1144.018738561984
 20
27.84941068814533
 30
0.0
 10
1136.623914134968
 20
29.93137562124798
 30
0.0
 10
1129.258872802968
 20
32.1138504607934
 30
0.0
 10
1121.893759260466
 20
34.29634669840016
 30
0.0
 10
1114.558366950895
 20
36.5793733201067
 30
0.0
 10
1107.258670453665
 20
38.97172866999063
 30
0.0
 10
1099.959044339239
 20
41.36406095306961
 30
0.0
 10
1092.695033523601
 20
43.86574601297752
 30
0.0
 10
1085.475721043603
 20
46.49075055869662
 30
0.0
 10
1078.256545838992
 20
49.11570518989606
 30
0.0
 10
1071.082056758422
 20
51.86397842932911
 30
0.0
 10
1063.963662704393
 20
54.75138388073742
 30
0.0
 10
1056.84521734788
 20
57.63881014176604
 30
0.0
 10
1049.783054326033
 20
60.66529499023
 30
0.0
 10
1042.796027160179
 20
63.85818656761626
 30
0.0
 10
1035.809691670773
 20
67.05076206666763
 30
0.0
 10
1028.897502934
 20
70.41015629088633
 30
0.0
 10
1022.092153826529
 20
73.97318368379979
 30
0.0
  0
SPLINE
  5
82
330
1F
100
AcDbEntity
  8
Default
100
AcDbSpline
210
0.0
220
0.0
230
1.0
 70
     8
 71
     3
 72
     8
 73
     4
 74
     0
 42
0.0000000001
 43
0.0000000001
 40
668.3090098609744
 40
668.3090098609744
 40
668.3090098609744
 40
668.3090098609744
 40
821.8293297151884
 40
821.8293297151884
 40
821.8293297151884
 40
821.8293297151884
 10
1022.092153826529
 20
73.97318368379979
 30
0.0
 10
1040.35028751036
 20
26.16800501731541
 30
0.0
 10
1058.605155819636
 20
-21.63842259263402
 30
0.0
 10
1076.853706409142
 20
-69.44726055103206
 30
0.0
  0
SPLINE
  5
83
330
1F
100
AcDbEntity
  8
Default
100
AcDbSpline
210
0.0
220
0.0
230
1.0
 70
     8
 71
     3
 72
     8
 73
     4
 74
     0
 42
0.0000000001
 43
0.0000000001
 40
821.8293297151884
 40
821.8293297151884
 40
821.8293297151884
 40
821.8293297151884
 40
982.2905426097967
 40
982.2905426097967
 40
982.2905426097967
 40
982.2905426097967
 10
1076.853706409142
 20
-69.44726055103206
 30
0.0
 10
1126.064900238159
 20
-90.40257401367217
 30
0.0
 10
1175.276126496653
 20
-111.3578113198741
 30
0.0
 10
1224.487419829662
 20
-132.3129449077542
 30
0.0
  0
SPLINE
  5
84
330
1F
100
AcDbEntity
  8
Default
100
AcDbSpline
210
0.0
220
0.0
230
1.0
 70
     8
 71
     3
 72
    92
 73
    88
 74
     0
 42
0.0000000001
 43
0.0000000001
 40
982.2905426097967
 40
982.2905426097967
 40
982.2905426097967
 40
982.2905426097967
 40
997.9590736278594
 40
997.9590736278594
 40
997.9590736278594
 40
1013.627455183261
 40
1013.627455183261
 40
1013.627455183261
 40
1029.295764555736
 40
1029.295764555736
 40
1029.295764555736
 40
1044.964041703925
 40
1044.964041703925
 40
1044.964041703925
 40
1060.677356937882
 40
1060.677356937882
 40
1060.677356937882
 40
1076.300929551186
 40
1076.300929551186
 40
1076.300929551186
 40
1091.969779709749
 40
1091.969779709749
 40
1091.969779709749
 40
1107.665040304156
 40
1107.665040304156
 40
1107.665040304156
 40
1123.306962929431
 40
1123.306962929431
 40
1123.306962929431
 40
1138.975998812969
 40
1138.975998812969
 40
1138.975998812969
 40
1154.643754059334
 40
1154.643754059334
 40
1154.643754059334
 40
1170.312171944906
 40
1170.312171944906
 40
1170.312171944906
 40
1185.980514399701
 40
1185.980514399701
 40
1185.980514399701
 40
1201.648833660641
 40
1201.648833660641
 40
1201.648833660641
 40
1217.317327047097
 40
1217.317327047097
 40
1217.317327047097
 40
1232.985689859848
 40
1232.985689859848
 40
1232.985689859848
 40
1248.654075863758
 40
1248.654075863758
 40
1248.654075863758
 40
1264.32384365651
 40
1264.32384365651
 40
1264.32384365651
 40
1279.990898683998
 40
1279.990898683998
 40
1279.990898683998
 40
1295.659306076578
 40
1295.659306076578
 40
1295.659306076578
 40
1311.327726780687
 40
1311.327726780687
 40
1311.327726780687
 40
1326.996178264785
 40
1326.996178264785
 40
1326.996178264785
 40
1342.664634240026
 40
1342.664634240026
 40
1342.664634240026
 40
1358.332656428132
 40
1358.332656428132
 40
1358.332656428132
 40
1374.001441916821
 40
1374.001441916821
 40
1374.001441916821
 40
1389.67189640884
 40
1389.67189640884
 40
1389.67189640884
 40
1405.338286427086
 40
1405.338286427086
 40
1405.338286427086
 40
1421.006724427601
 40
1421.006724427601
 40
1421.006724427601
 40
1436.675280028176
 40
1436.675280028176
 40
1436.675280028176
 40
1436.675280028176
 10
1224.487419829662
 20
-132.3129449077542
 30
0.0
 10
1229.635239789425
 20
-133.1940226850434
 30
0.0
 10
1234.792672699822
 20
-134.0204990064226
 30
0.0
 10
1239.955114530327
 20
-134.8110411889622
 30
0.0
 10
1245.117640363389
 20
-135.6015962350982
 30
0.0
 10
1250.28593568527
 20
-136.3563218717518
 30
0.0
 10
1255.457123096515
 20
-137.0870818834715
 30
0.0
 10
1260.628469116427
 20
-137.8178643087806
 30
0.0
 10
1265.803335375921
 20
-138.5247947481093
 30
0.0
 10
1270.980559057309
 20
-139.212162042202
 30
0.0
 10
1276.157874194839
 20
-139.8995414787021
 30
0.0
 10
1281.337793863702
 20
-140.5673708849183
 30
0.0
 10
1286.516637151171
 20
-141.243072042995
 30
0.0
 10
1291.710357652384
 20
-141.9207142813475
 30
0.0
 10
1296.903146765021
 20
-142.6063386663877
 30
0.0
 10
1302.10132672531
 20
-143.2486878277573
 30
0.0
 10
1307.276727209125
 20
-143.8882220851181
 30
0.0
 10
1312.436560966061
 20
-144.4820229916579
 30
0.0
 10
1317.626018390307
 20
-144.9967137540448
 30
0.0
 10
1322.819538038996
 20
-145.5118074081449
 30
0.0
 10
1328.03244178388
 20
-145.9466404476016
 30
0.0
 10
1333.236468254534
 20
-146.3395967133408
 30
0.0
 10
1338.453250581552
 20
-146.7335161743504
 30
0.0
 10
1343.673522554738
 20
-147.0863785812596
 30
0.0
 10
1348.894988854362
 20
-147.4093077978439
 30
0.0
 10
1354.098953741221
 20
-147.7311546139706
 30
0.0
 10
1359.304986366399
 20
-148.0231217620292
 30
0.0
 10
1364.51186410263
 20
-148.2917275010991
 30
0.0
 10
1369.727898180583
 20
-148.5608055857967
 30
0.0
 10
1374.945274864123
 20
-148.8066156407212
 30
0.0
 10
1380.163274535959
 20
-149.0328560935118
 30
0.0
 10
1385.380927131503
 20
-149.259081497873
 30
0.0
 10
1390.599533976552
 20
-149.4656976828787
 30
0.0
 10
1395.818596500383
 20
-149.6552946748541
 30
0.0
 10
1401.037938144738
 20
-149.8449018066608
 30
0.0
 10
1406.257968399488
 20
-150.0175114787387
 30
0.0
 10
1411.47828994446
 20
-150.1767637879111
 30
0.0
 10
1416.698628901244
 20
-150.3360166282523
 30
0.0
 10
1421.919419619151
 20
-150.4819133383014
 30
0.0
 10
1427.140413072981
 20
-150.6172053358941
 30
0.0
 10
1432.361425039886
 20
-150.7524978132176
 30
0.0
 10
1437.582740112282
 20
-150.877188887257
 30
0.0
 10
1442.804200044485
 20
-150.9933068014291
 30
0.0
 10
1448.025734605537
 20
-151.1094263752416
 30
0.0
 10
1453.2474783928
 20
-151.2169739742831
 30
0.0
 10
1458.469326071673
 20
-151.3175733092705
 30
0.0
 10
1463.691141100265
 20
-151.4181720152476
 30
0.0
 10
1468.913102148294
 20
-151.511823451177
 30
0.0
 10
1474.135138195532
 20
-151.5998605337018
 30
0.0
 10
1479.35718912385
 20
-151.6878978671032
 30
0.0
 10
1484.579342556459
 20
-151.7703207131558
 30
0.0
 10
1489.801550025573
 20
-151.8482694326626
 30
0.0
 10
1495.02422272163
 20
-151.9262250963291
 30
0.0
 10
1500.246967035072
 20
-151.9997073677489
 30
0.0
 10
1505.469749736482
 20
-152.069731863814
 30
0.0
 10
1510.691631249638
 20
-152.1397442771915
 30
0.0
 10
1515.913561825804
 20
-152.2062988208913
 30
0.0
 10
1521.135518150528
 20
-152.2703807664564
 30
0.0
 10
1526.35792665113
 20
-152.3344682609591
 30
0.0
 10
1531.580368390314
 20
-152.3960836465724
 30
0.0
 10
1536.802846548618
 20
-152.4541068916828
 30
0.0
 10
1542.025329884549
 20
-152.5121301943177
 30
0.0
 10
1547.247857694564
 20
-152.5665610585488
 30
0.0
 10
1552.470418264812
 20
-152.6169449252188
 30
0.0
 10
1557.692991173487
 20
-152.6673289109217
 30
0.0
 10
1562.915607187304
 20
-152.7136660959911
 30
0.0
 10
1568.138243125476
 20
-152.756789936069
 30
0.0
 10
1573.360882927934
 20
-152.799913808055
 30
0.0
 10
1578.583552062222
 20
-152.8398244462692
 30
0.0
 10
1583.806236739653
 20
-152.8769331558847
 30
0.0
 10
1589.028778503301
 20
-152.9140408500559
 30
0.0
 10
1594.251341554914
 20
-152.9483467042144
 30
0.0
 10
1599.473911152549
 20
-152.9811905742108
 30
0.0
 10
1604.696736216724
 20
-153.0140360507933
 30
0.0
 10
1609.919570975874
 20
-153.0454193657331
 30
0.0
 10
1615.142411203563
 20
-153.0757158354256
 30
0.0
 10
1620.36580811868
 20
-153.1060155343307
 30
0.0
 10
1625.589211343485
 20
-153.1352283024646
 30
0.0
 10
1630.812610127873
 20
-153.1652021033249
 30
0.0
 10
1636.034653923347
 20
-153.195168128756
 30
0.0
 10
1641.25669416491
 20
-153.2258951135186
 30
0.0
 10
1646.478754458558
 20
-153.2528003944706
 30
0.0
 10
1651.70149401207
 20
-153.279709175129
 30
0.0
 10
1656.924265498257
 20
-153.302797153058
 30
0.0
 10
1662.146928503202
 20
-153.3415272142342
 30
0.0
 10
1667.369591786486
 20
-153.3802572774744
 30
0.0
 10
1672.59227195653
 20
-153.4346325434462
 30
0.0
 10
1677.815057446334
 20
-153.4346326293728
 30
0.0
  0
SPLINE
  5
85
330
1F
100
AcDbEntity
  8
Default
100
AcDbSpline
210
0.0
220
0.0
230
1.0
 70
     8
 71
     3
 72
    92
 73
    88
 74
     0
 42
0.0000000001
 43
0.0000000001
 40
0.0
 40
0.0
 40
0.0
 40
0.0
 40
23.73938421627053
 40
23.73938421627053
 40
23.73938421627053
 40
47.47877792171236
 40
47.47877792171236
 40
47.47877792171236
 40
71.21802074092368
 40
71.21802074092368
 40
71.21802074092368
 40
94.95753683056782
 40
94.95753683056782
 40
94.95753683056782
 40
118.6977965653289
 40
118.6977965653289
 40
118.6977965653289
 40
142.437375166042
 40
142.437375166042
 40
142.437375166042
 40
166.1755287560791
 40
166.1755287560791
 40
166.1755287560791
 40
189.9149328375715
 40
189.9149328375715
 40
189.9149328375715
 40
213.6543063623077
 40
213.6543063623077
 40
213.6543063623077
 40
237.39360858998
 40
237.39360858998
 40
237.39360858998
 40
261.1328173514716
 40
261.1328173514716
 40
261.1328173514716
 40
284.8718986038988
 40
284.8718986038988
 40
284.8718986038988
 40
308.6108078692614
 40
308.6108078692614
 40
308.6108078692614
 40
332.3667184776979
 40
332.3667184776979
 40
332.3667184776979
 40
356.087892840006
 40
356.087892840006
 40
356.087892840006
 40
379.8254623834956
 40
379.8254623834956
 40
379.8254623834956
 40
403.5636236875105
 40
403.5636236875105
 40
403.5636236875105
 40
427.3006716072911
 40
427.3006716072911
 40
427.3006716072911
 40
451.0391301830771
 40
451.0391301830771
 40
451.0391301830771
 40
474.7763500085543
 40
474.7763500085543
 40
474.7763500085543
 40
498.5119888787494
 40
498.5119888787494
 40
498.5119888787494
 40
522.249595785278
 40
522.249595785278
 40
522.249595785278
 40
545.9861180044331
 40
545.9861180044331
 40
545.9861180044331
 40
569.7214042112074
 40
569.7214042112074
 40
569.7214042112074
 40
593.4569115967602
 40
593.4569115967602
 40
593.4569115967602
 40
617.1922025151787
 40
617.1922025151787
 40
617.1922025151787
 40
640.9271910274218
 40
640.9271910274218
 40
640.9271910274218
 40
664.6622971267064
 40
664.6622971267064
 40
664.6622971267064
 40
688.3956277847132
 40
688.3956277847132
 40
688.3956277847132
 40
688.3956277847132
 10
1677.815038818682
 20
-13.93947284630144
 30
0.0
 10
1669.901920069037
 20
-13.93947338032558
 30
0.0
 10
1661.988765284625
 20
-13.92869441436801
 30
0.0
 10
1654.075705680377
 20
-13.90238503920796
 30
0.0
 10
1646.162631573394
 20
-13.876075615829
 30
0.0
 10
1638.249562496005
 20
-13.83420561342109
 30
0.0
 10
1630.336668243073
 20
-13.77769852816891
 30
0.0
 10
1622.423802320974
 20
-13.72119164523133
 30
0.0
 10
1614.510992816916
 20
-13.65005605005649
 30
0.0
 10
1606.598425729932
 20
-13.56300821915261
 30
0.0
 10
1598.685746531031
 20
-13.47595915488182
 30
0.0
 10
1590.773193513766
 20
-13.37299348004558
 30
0.0
 10
1582.860937471965
 20
-13.2550433588226
 30
0.0
 10
1574.94841168912
 20
-13.13708921649777
 30
0.0
 10
1567.036053796311
 20
-13.00414895535323
 30
0.0
 10
1559.124109114768
 20
-12.8534257936044
 30
0.0
 10
1551.212373631911
 20
-12.70270661710697
 30
0.0
 10
1543.300895027129
 20
-12.53420243159235
 30
0.0
 10
1535.390053420496
 20
-12.34371060454487
 30
0.0
 10
1527.479660165152
 20
-12.15322957372609
 30
0.0
 10
1519.569680332656
 20
-11.94075540807967
 30
0.0
 10
1511.660622917262
 20
-11.70286451476386
 30
0.0
 10
1503.751107098849
 20
-11.46495983347086
 30
0.0
 10
1495.842202593602
 20
-11.20162896979059
 30
0.0
 10
1487.934582475908
 20
-10.90923638503318
 30
0.0
 10
1480.026915526466
 20
-10.61684206862242
 30
0.0
 10
1472.120128085838
 20
-10.29536858301913
 30
0.0
 10
1464.215064710314
 20
-9.941436829233908
 30
0.0
 10
1456.309950014874
 20
-9.587502777712189
 30
0.0
 10
1448.406046201723
 20
-9.201087864993497
 30
0.0
 10
1440.504410568092
 20
-8.778565841366571
 30
0.0
 10
1432.602711513777
 20
-8.356040426462641
 30
0.0
 10
1424.702647579938
 20
-7.897369871532874
 30
0.0
 10
1416.805502305676
 20
-7.399029600666836
 30
0.0
 10
1408.908278891737
 20
-6.900684398886142
 30
0.0
 10
1401.013216930895
 20
-6.362632349682372
 30
0.0
 10
1393.121717212965
 20
-5.782773456624454
 30
0.0
 10
1385.230138458603
 20
-5.20290875605474
 30
0.0
 10
1377.341212457388
 20
-4.581119109290967
 30
0.0
 10
1369.45700613502
 20
-3.910650717892395
 30
0.0
 10
1361.566989069357
 20
-3.239688184210763
 30
0.0
 10
1353.680604636021
 20
-2.520009928193986
 30
0.0
 10
1345.799869504573
 20
-1.750017988490526
 30
0.0
 10
1337.930444823265
 20
-0.981131143083303
 30
0.0
 10
1330.065365799691
 20
-0.1617730852315162
 30
0.0
 10
1322.207254163972
 20
0.712834812136407
 30
0.0
 10
1314.343476820461
 20
1.588073302833664
 30
0.0
 10
1306.485176532687
 20
2.518673384866815
 30
0.0
 10
1298.635255371076
 20
3.508052655390429
 30
0.0
 10
1290.784859384673
 20
4.497491771330715
 30
0.0
 10
1282.941115452962
 20
5.545991338086651
 30
0.0
 10
1275.107474266036
 20
6.657802326686578
 30
0.0
 10
1267.273881980018
 20
7.769606374891282
 30
0.0
 10
1259.448392951496
 20
8.944999505886472
 30
0.0
 10
1251.635026852097
 20
10.18839095967815
 30
0.0
 10
1243.820764034236
 20
11.43192511407483
 30
0.0
 10
1236.016986256567
 20
12.74371932526128
 30
0.0
 10
1228.226432604505
 20
14.12812547005956
 30
0.0
 10
1220.436242632646
 20
15.51246698772979
 30
0.0
 10
1212.658811351008
 20
16.96949614693858
 30
0.0
 10
1204.896703104693
 20
18.5035685708765
 30
0.0
 10
1197.134904938552
 20
20.03757971179334
 30
0.0
 10
1189.38889820878
 20
21.64853514544552
 30
0.0
 10
1181.660318463099
 20
23.34207405731422
 30
0.0
 10
1173.931511046271
 20
25.0356628580314
 30
0.0
 10
1166.22020509835
 20
26.81182390751906
 30
0.0
 10
1158.530323183772
 20
28.67426391338904
 30
0.0
 10
1150.840635225156
 20
30.53665694437109
 30
0.0
 10
1143.17188487003
 20
32.48544212478328
 30
0.0
 10
1135.527565184408
 20
34.5261694434887
 30
0.0
 10
1127.883661456213
 20
36.56678571821385
 30
0.0
 10
1120.264402534627
 20
38.69927624458819
 30
0.0
 10
1112.674105748143
 20
40.93116570934103
 30
0.0
 10
1105.083894937013
 20
43.16302989346286
 30
0.0
 10
1097.522733886595
 20
45.49426480376837
 30
0.0
 10
1089.996012180505
 20
47.93179782476955
 30
0.0
 10
1082.469437300196
 20
50.36928329615989
 30
0.0
 10
1074.977142686239
 20
52.91311380649449
 30
0.0
 10
1067.527124737051
 20
55.57563660759024
 30
0.0
 10
1060.077321266128
 20
58.23808275742454
 30
0.0
 10
1052.669843588547
 20
61.01919592455511
 30
0.0
 10
1045.314768751631
 20
63.93340150602421
 30
0.0
 10
1037.960011751804
 20
66.84748115503976
 30
0.0
 10
1030.65744849613
 20
69.89472271480372
 30
0.0
 10
1023.425418620546
 20
73.10181034802167
 30
0.0
 10
1016.194627853712
 20
76.30834849092844
 30
0.0
 10
1009.033406069523
 20
79.67509444173561
 30
0.0
 10
1001.972689362886
 20
83.24146285203597
 30
0.0
  0
SPLINE
  5
86
330
1F
100
AcDbEntity
  8
Default
100
AcDbSpline
210
0.0
220
0.0
230
1.0
 70
     8
 71
     3
 72
     8
 73
     4
 74
     0
 42
0.0000000001
 43
0.0000000001
 40
688.3956277847132
 40
688.3956277847132
 40
688.3956277847132
 40
688.3956277847132
 40
857.9648045330371
 40
857.9648045330371
 40
857.9648045330371
 40
857.9648045330371
 10
1001.972689362886
 20
83.24146285203597
 30
0.0
 10
1020.783489871666
 20
29.94045540147363
 30
0.0
 10
1039.582929381659
 20
-23.3645663043178
 30
0.0
 10
1058.370599663436
 20
-76.67372935705339
 30
0.0
  0
SPLINE
  5
87
330
1F
100
AcDbEntity
  8
Default
100
AcDbSpline
210
0.0
220
0.0
230
1.0
 70
     8
 71
     3
 72
     8
 73
     4
 74
     0
 42
0.0000000001
 43
0.0000000001
 40
857.9648045330371
 40
857.9648045330371
 40
857.9648045330371
 40
857.9648045330371
 40
1023.537690647943
 40
1023.537690647943
 40
1023.537690647943
 40
1023.537690647943
 10
1058.370599663436
 20
-76.67372935705339
 30
0.0
 10
1108.796025812871
 20
-99.10849452942443
 30
0.0
 10
1159.221514419601
 20
-121.5431193215732
 30
0.0
 10
1209.647066403859
 20
-143.9776032529312
 30
0.0
  0
SPLINE
  5
88
330
1F
100
AcDbEntity
  8
Default
100
AcDbSpline
210
0.0
220
0.0
230
1.0
 70
     8
 71
     3
 72
    92
 73
    88
 74
     0
 42
0.0000000001
 43
0.0000000001
 40
1023.537690647943
 40
1023.537690647943
 40
1023.537690647943
 40
1023.537690647943
 40
1039.729442338823
 40
1039.729442338823
 40
1039.729442338823
 40
1055.921617512871
 40
1055.921617512871
 40
1055.921617512871
 40
1072.114231429501
 40
1072.114231429501
 40
1072.114231429501
 40
1088.306761137129
 40
1088.306761137129
 40
1088.306761137129
 40
1104.518598439555
 40
1104.518598439555
 40
1104.518598439555
 40
1120.692675408026
 40
1120.692675408026
 40
1120.692675408026
 40
1136.884840499031
 40
1136.884840499031
 40
1136.884840499031
 40
1153.088023298255
 40
1153.088023298255
 40
1153.088023298255
 40
1169.267712944014
 40
1169.267712944014
 40
1169.267712944014
 40
1185.455082240012
 40
1185.455082240012
 40
1185.455082240012
 40
1201.65290047402
 40
1201.65290047402
 40
1201.65290047402
 40
1217.845086538503
 40
1217.845086538503
 40
1217.845086538503
 40
1234.037931697365
 40
1234.037931697365
 40
1234.037931697365
 40
1250.23097294261
 40
1250.23097294261
 40
1250.23097294261
 40
1266.422571106927
 40
1266.422571106927
 40
1266.422571106927
 40
1282.615258428892
 40
1282.615258428892
 40
1282.615258428892
 40
1298.807755866724
 40
1298.807755866724
 40
1298.807755866724
 40
1314.983842789865
 40
1314.983842789865
 40
1314.983842789865
 40
1331.192402258514
 40
1331.192402258514
 40
1331.192402258514
 40
1347.38461272549
 40
1347.38461272549
 40
1347.38461272549
 40
1363.576788379556
 40
1363.576788379556
 40
1363.576788379556
 40
1379.768755218854
 40
1379.768755218854
 40
1379.768755218854
 40
1395.960857625112
 40
1395.960857625112
 40
1395.960857625112
 40
1412.155937236028
 40
1412.155937236028
 40
1412.155937236028
 40
1428.345315508832
 40
1428.345315508832
 40
1428.345315508832
 40
1444.53490087679
 40
1444.53490087679
 40
1444.53490087679
 40
1460.729665796618
 40
1460.729665796618
 40
1460.729665796618
 40
1476.922023418476
 40
1476.922023418476
 40
1476.922023418476
 40
1493.115202279707
 40
1493.115202279707
 40
1493.115202279707
 40
1493.115202279707
 10
1209.647066403859
 20
-143.9776032529312
 30
0.0
 10
1214.957806109225
 20
-144.9391778303179
 30
0.0
 10
1220.277808326206
 20
-145.8524676656391
 30
0.0
 10
1225.602462646688
 20
-146.7321801399678
 30
0.0
 10
1230.927588595204
 20
-147.6119705342965
 30
0.0
 10
1236.258486698203
 20
-148.4583622378611
 30
0.0
 10
1241.59265189742
 20
-149.2807630132149
 30
0.0
 10
1246.927117741636
 20
-150.1032101408421
 30
0.0
 10
1252.265416386428
 20
-150.9017626867478
 30
0.0
 10
1257.606392029233
 20
-151.6803280319093
 30
0.0
 10
1262.94743726897
 20
-152.4589035223637
 30
0.0
 10
1268.291421208022
 20
-153.2175135318416
 30
0.0
 10
1273.635307594732
 20
-153.9762099134164
 30
0.0
 10
1278.985558708648
 20
-154.7358099248875
 30
0.0
 10
1284.335962387892
 20
-155.4955790199963
 30
0.0
 10
1289.692496435955
 20
-156.2091508980002
 30
0.0
 10
1295.039779020042
 20
-156.9214903401667
 30
0.0
 10
1300.383573857631
 20
-157.5863981654309
 30
0.0
 10
1305.74357367742
 20
-158.1959993582395
 30
0.0
 10
1311.106182870765
 20
-158.805897319198
 30
0.0
 10
1316.47586081049
 20
-159.3594300657483
 30
0.0
 10
1321.847949424146
 20
-159.8758365878823
 30
0.0
 10
1327.224119220142
 20
-160.3926354246878
 30
0.0
 10
1332.604225511386
 20
-160.8724052467271
 30
0.0
 10
1337.986529352088
 20
-161.3186985625011
 30
0.0
 10
1343.361223823357
 20
-161.7643609197085
 30
0.0
 10
1348.739001550764
 20
-162.1766306749639
 30
0.0
 10
1354.118501410275
 20
-162.5578810888949
 30
0.0
 10
1359.500716305264
 20
-162.939323920044
 30
0.0
 10
1364.885383681922
 20
-163.2898154567763
 30
0.0
 10
1370.271307992847
 20
-163.6126747557337
 30
0.0
 10
1375.660849621923
 20
-163.9357508948719
 30
0.0
 10
1381.052236555085
 20
-164.2312039314575
 30
0.0
 10
1386.444464629804
 20
-164.5040266713927
 30
0.0
 10
1391.834929221618
 20
-164.7767601869425
 30
0.0
 10
1397.226654466314
 20
-165.0268781715506
 30
0.0
 10
1402.618914868548
 20
-165.2601278726972
 30
0.0
 10
1408.011466798705
 20
-165.4933901842885
 30
0.0
 10
1413.404815417147
 20
-165.70980313575
 30
0.0
 10
1418.798553301241
 20
-165.9129408106114
 30
0.0
 10
1424.19239702841
 20
-166.1160824717092
 30
0.0
 10
1429.5867827972
 20
-166.3059529661082
 30
0.0
 10
1434.981448900962
 20
-166.4853238321491
 30
0.0
 10
1440.375659349731
 20
-166.6646795478118
 30
0.0
 10
1445.770245444974
 20
-166.8335400328062
 30
0.0
 10
1451.165038139932
 20
-166.9940007567591
 30
0.0
 10
1456.560209506665
 20
-167.1544727437856
 30
0.0
 10
1461.955647656076
 20
-167.3065442552122
 30
0.0
 10
1467.351237546454
 20
-167.4519634216117
 30
0.0
 10
1472.746774242503
 20
-167.5973811543449
 30
0.0
 10
1478.142500605326
 20
-167.736155776385
 30
0.0
 10
1483.538340436858
 20
-167.8696461149136
 30
0.0
 10
1488.928718219456
 20
-168.0030013251244
 30
0.0
 10
1494.319232876402
 20
-168.1310666054153
 30
0.0
 10
1499.709822480806
 20
-168.2554364757345
 30
0.0
 10
1505.111237129407
 20
-168.3800560978325
 30
0.0
 10
1510.512740822413
 20
-168.5009838383019
 30
0.0
 10
1515.914314454068
 20
-168.6184277161349
 30
0.0
 10
1521.310441138542
 20
-168.7357531635544
 30
0.0
 10
1526.706649438487
 20
-168.8495897098746
 30
0.0
 10
1532.102955387605
 20
-168.9582365751646
 30
0.0
 10
1537.499251312184
 20
-169.066883238625
 30
0.0
 10
1542.895659997765
 20
-169.170346915831
 30
0.0
 10
1548.292154333866
 20
-169.2684341924266
 30
0.0
 10
1553.688583210877
 20
-169.3665202792311
 30
0.0
 10
1559.085116664192
 20
-169.4592284908056
 30
0.0
 10
1564.481707648007
 20
-169.547746840128
 30
0.0
 10
1569.878347881439
 20
-169.636265997274
 30
0.0
 10
1575.275061261595
 20
-169.7205951538449
 30
0.0
 10
1580.671820006586
 20
-169.8014262256293
 30
0.0
 10
1586.069573850666
 20
-169.882272201716
 30
0.0
 10
1591.467381697035
 20
-169.9596204448771
 30
0.0
 10
1596.865203261073
 20
-170.0357473166907
 30
0.0
 10
1602.261125976993
 20
-170.111847408559
 30
0.0
 10
1607.657066264227
 20
-170.1867261923555
 30
0.0
 10
1613.053018805186
 20
-170.2606689621584
 30
0.0
 10
1618.449040447155
 20
-170.3346126788788
 30
0.0
 10
1623.84507552811
 20
-170.4076213960118
 30
0.0
 10
1629.24105919654
 20
-170.4842782765506
 30
0.0
 10
1634.638768387799
 20
-170.5609596703582
 30
0.0
 10
1640.036428075403
 20
-170.6412898128508
 30
0.0
 10
1645.434207249195
 20
-170.7128626843967
 30
0.0
 10
1650.8311607375
 20
-170.7844246076097
 30
0.0
 10
1656.228313624845
 20
-170.847230801661
 30
0.0
 10
1661.624742260123
 20
-170.9502249981599
 30
0.0
 10
1667.020127073425
 20
-171.0531992726669
 30
0.0
 10
1672.418088127831
 20
-171.1964226143555
 30
0.0
 10
1677.815038818687
 20
-171.1964226068881
 30
0.0
  0
SPLINE
  5
89
330
1F
100
AcDbEntity
  8
Default
100
AcDbSpline
210
0.0
220
0.0
230
1.0
 70
     8
 71
     3
 72
    89
 73
    85
 74
     0
 42
0.0000000001
 43
0.0000000001
 40
0.0
 40
0.0
 40
0.0
 40
0.0
 40
23.94949877542682
 40
23.94949877542682
 40
23.94949877542682
 40
47.92425887795742
 40
47.92425887795742
 40
47.92425887795742
 40
71.89907621569219
 40
71.89907621569219
 40
71.89907621569219
 40
95.87197975868065
 40
95.87197975868065
 40
95.87197975868065
 40
119.8462197007055
 40
119.8462197007055
 40
119.8462197007055
 40
143.8236019725148
 40
143.8236019725148
 40
143.8236019725148
 40
167.79829871449
 40
167.79829871449
 40
167.79829871449
 40
191.7730296114185
 40
191.7730296114185
 40
191.7730296114185
 40
215.7478473505703
 40
215.7478473505703
 40
215.7478473505703
 40
239.7228164865717
 40
239.7228164865717
 40
239.7228164865717
 40
263.6979985404967
 40
263.6979985404967
 40
263.6979985404967
 40
287.6734732048458
 40
287.6734732048458
 40
287.6734732048458
 40
311.662894145449
 40
311.662894145449
 40
311.662894145449
 40
335.6257066338817
 40
335.6257066338817
 40
335.6257066338817
 40
359.60386818395
 40
359.60386818395
 40
359.60386818395
 40
383.5805906517643
 40
383.5805906517643
 40
383.5805906517643
 40
407.5568807401201
 40
407.5568807401201
 40
407.5568807401201
 40
431.534877536072
 40
431.534877536072
 40
431.534877536072
 40
455.512612678579
 40
455.512612678579
 40
455.512612678579
 40
479.4895899316173
 40
479.4895899316173
 40
479.4895899316173
 40
503.4685845641191
 40
503.4685845641191
 40
503.4685845641191
 40
527.4487197250196
 40
527.4487197250196
 40
527.4487197250196
 40
551.4274136616211
 40
551.4274136616211
 40
551.4274136616211
 40
575.4074288664928
 40
575.4074288664928
 40
575.4074288664928
 40
599.388409214972
 40
599.388409214972
 40
599.388409214972
 40
623.3677632284803
 40
623.3677632284803
 40
623.3677632284803
 40
647.3497980487193
 40
647.3497980487193
 40
647.3497980487193
 40
671.3367927566588
 40
671.3367927566588
 40
671.3367927566588
 40
671.3367927566588
 10
1653.815053566458
 20
-5.351778178484665
 30
0.0
 10
1645.831922679983
 20
-5.330795139587735
 30
0.0
 10
1637.848795827647
 20
-5.297914502948061
 30
0.0
 10
1629.86577212669
 20
-5.253771473137704
 30
0.0
 10
1621.874315405299
 20
-5.209581811989665
 30
0.0
 10
1613.882892754525
 20
-5.154115284529098
 30
0.0
 10
1605.891613782101
 20
-5.086376060290149
 30
0.0
 10
1597.90030315911
 20
-5.018636567760723
 30
0.0
 10
1589.909068730894
 20
-4.938621943643284
 30
0.0
 10
1581.918004399488
 20
-4.847432544486537
 30
0.0
 10
1573.927565650985
 20
-4.756250284119687
 30
0.0
 10
1565.937221026058
 20
-4.653893398937043
 30
0.0
 10
1557.947128680745
 20
-4.537205837605143
 30
0.0
 10
1549.95658259821
 20
-4.420511649880609
 30
0.0
 10
1541.966188093493
 20
-4.28948293124904
 30
0.0
 10
1533.976226887087
 20
-4.139272764177122
 30
0.0
 10
1525.985203000346
 20
-3.989042618861504
 30
0.0
 10
1517.994447273485
 20
-3.81962747932721
 30
0.0
 10
1510.004376217282
 20
-3.626907556636297
 30
0.0
 10
1502.015169891917
 20
-3.434208491189338
 30
0.0
 10
1494.026394088884
 20
-3.218197344815508
 30
0.0
 10
1486.038631233984
 20
-2.974772602182156
 30
0.0
 10
1478.050810755452
 20
-2.731346103485293
 30
0.0
 10
1470.063649069597
 20
-2.460497669115512
 30
0.0
 10
1462.077916009165
 20
-2.158286480640299
 30
0.0
 10
1454.092088890979
 20
-1.856071732654073
 30
0.0
 10
1446.10722119587
 20
-1.522474827171209
 30
0.0
 10
1438.124302760354
 20
-1.153501895880254
 30
0.0
 10
1430.141247622843
 20
-0.7845226461815855
 30
0.0
 10
1422.159542007259
 20
-0.3801359311032684
 30
0.0
 10
1414.180427343171
 20
0.0636840420777389
 30
0.0
 10
1406.201128000969
 20
0.5075142875557503
 30
0.0
 10
1398.223684636897
 20
0.9908118480323083
 30
0.0
 10
1390.249483016534
 20
1.516020797246711
 30
0.0
 10
1382.275051693443
 20
2.041244875490293
 30
0.0
 10
1374.302959279497
 20
2.608482309065266
 30
0.0
 10
1366.335247289707
 20
3.224866960775444
 30
0.0
 10
1358.362738155074
 20
3.841622721086651
 30
0.0
 10
1350.393517217806
 20
4.507568240022465
 30
0.0
 10
1342.429638296268
 20
5.224610753757361
 30
0.0
 10
1334.474378219599
 20
5.940877253912277
 30
0.0
 10
1326.523133572651
 20
6.708392964122368
 30
0.0
 10
1318.578563697644
 20
7.532224543553866
 30
0.0
 10
1310.628666416215
 20
8.356608561407484
 30
0.0
 10
1302.683916312264
 20
9.237425044666907
 30
0.0
 10
1294.747288338408
 20
10.17833593020532
 30
0.0
 10
1286.810849754471
 20
11.11922436300461
 30
0.0
 10
1278.880750473499
 20
12.1204738925835
 30
0.0
 10
1270.960514498486
 20
13.18644743960863
 30
0.0
 10
1263.040091673177
 20
14.25244613455561
 30
0.0
 10
1255.127467908849
 20
15.38343926866082
 30
0.0
 10
1247.226724126715
 20
16.58380032839591
 30
0.0
 10
1239.324925018404
 20
17.78432172397834
 30
0.0
 10
1231.433455162673
 20
19.05445198168968
 30
0.0
 10
1223.554772703352
 20
20.3984255287221
 30
0.0
 10
1215.676171057516
 20
21.74238529030436
 30
0.0
 10
1207.810029098277
 20
23.16024268307865
 30
0.0
 10
1199.958852840122
 20
24.65619000833226
 30
0.0
 10
1192.107785996986
 20
26.15211648586819
 30
0.0
 10
1184.271964556103
 20
27.72607734559438
 30
0.0
 10
1176.453216240112
 20
29.38272771893639
 30
0.0
 10
1168.634003060207
 20
31.03947658847619
 30
0.0
 10
1160.83217268961
 20
32.77885961999004
 30
0.0
 10
1153.050595055836
 20
34.60428803656237
 30
0.0
 10
1145.268781596229
 20
36.42977177394482
 30
0.0
 10
1137.506722110819
 20
38.34142340182871
 30
0.0
 10
1129.768373110145
 20
40.34323718728092
 30
0.0
 10
1122.030256032354
 20
42.34499097719322
 30
0.0
 10
1114.315868733419
 20
44.43689615937637
 30
0.0
 10
1106.628496934527
 20
46.62556157587255
 30
0.0
 10
1098.940909741277
 20
48.81428831712219
 30
0.0
 10
1091.280755078251
 20
51.09966241449433
 30
0.0
 10
1083.652436296356
 20
53.48685814756914
 30
0.0
 10
1076.024026129828
 20
55.87408247842723
 30
0.0
 10
1068.42693870205
 20
58.36329169959095
 30
0.0
 10
1060.868969183387
 20
60.96512227550602
 30
0.0
 10
1053.311337398897
 20
63.56683658645125
 30
0.0
 10
1045.792855690128
 20
66.28114989391293
 30
0.0
 10
1038.321594071458
 20
69.12162112294686
 30
0.0
 10
1030.849693092905
 20
71.96233542784239
 30
0.0
 10
1023.425989738884
 20
74.92886082482755
 30
0.0
 10
1016.065900503077
 20
78.04833915855943
 30
0.0
 10
1008.705504523704
 20
81.16794750157169
 30
0.0
 10
1001.407691609859
 20
84.44096077488757
 30
0.0
 10
994.2044898611646
 20
87.90907155533046
 30
0.0
  0
SPLINE
  5
8A
330
1F
100
AcDbEntity
  8
Default
100
AcDbSpline
210
0.0
220
0.0
230
1.0
 70
     8
 71
     3
 72
     8
 73
     4
 74
     0
 42
0.0000000001
 43
0.0000000001
 40
671.3367927566588
 40
671.3367927566588
 40
671.3367927566588
 40
671.3367927566588
 40
848.9534503315614
 40
848.9534503315614
 40
848.9534503315614
 40
848.9534503315614
 10
994.2044898611646
 20
87.90907155533046
 30
0.0
 10
1012.392275501844
 20
31.56635638939701
 30
0.0
 10
1030.566850869066
 20
-24.78063515018266
 30
0.0
 10
1048.723292831967
 20
-81.13345399247896
 30
0.0
  0
SPLINE
  5
8B
330
1F
100
AcDbEntity
  8
Default
100
AcDbSpline
210
0.0
220
0.0
230
1.0
 70
     8
 71
     3
 72
     8
 73
     4
 74
     0
 42
0.0000000001
 43
0.0000000001
 40
848.9534503315614
 40
848.9534503315614
 40
848.9534503315614
 40
848.9534503315614
 40
1015.099610508892
 40
1015.099610508892
 40
1015.099610508892
 40
1015.099610508892
 10
1048.723292831967
 20
-81.13345399247896
 30
0.0
 10
1098.654361371307
 20
-105.0930080883527
 30
0.0
 10
1148.585384623526
 20
-129.0526565621167
 30
0.0
 10
1198.517038127392
 20
-153.0120582322827
 30
0.0
  0
SPLINE
  5
8C
330
1F
100
AcDbEntity
  8
Default
100
AcDbSpline
210
0.0
220
0.0
230
1.0
 70
     8
 71
     3
 72
    89
 73
    85
 74
     0
 42
0.0000000001
 43
0.0000000001
 40
1015.099610508892
 40
1015.099610508892
 40
1015.099610508892
 40
1015.099610508892
 40
1031.68862396207
 40
1031.68862396207
 40
1031.68862396207
 40
1048.276377427058
 40
1048.276377427058
 40
1048.276377427058
 40
1064.86311100383
 40
1064.86311100383
 40
1064.86311100383
 40
1081.449879933161
 40
1081.449879933161
 40
1081.449879933161
 40
1098.033199835976
 40
1098.033199835976
 40
1098.033199835976
 40
1114.622274787779
 40
1114.622274787779
 40
1114.622274787779
 40
1131.209993255279
 40
1131.209993255279
 40
1131.209993255279
 40
1147.796153964559
 40
1147.796153964559
 40
1147.796153964559
 40
1164.388181585403
 40
1164.388181585403
 40
1164.388181585403
 40
1180.989177260405
 40
1180.989177260405
 40
1180.989177260405
 40
1197.56173883091
 40
1197.56173883091
 40
1197.56173883091
 40
1214.149390305295
 40
1214.149390305295
 40
1214.149390305295
 40
1230.735577046615
 40
1230.735577046615
 40
1230.735577046615
 40
1247.321305594811
 40
1247.321305594811
 40
1247.321305594811
 40
1263.910070438635
 40
1263.910070438635
 40
1263.910070438635
 40
1280.496500846947
 40
1280.496500846947
 40
1280.496500846947
 40
1297.083322361227
 40
1297.083322361227
 40
1297.083322361227
 40
1313.659955665489
 40
1313.659955665489
 40
1313.659955665489
 40
1330.257638383771
 40
1330.257638383771
 40
1330.257638383771
 40
1346.845077756288
 40
1346.845077756288
 40
1346.845077756288
 40
1363.432573597377
 40
1363.432573597377
 40
1363.432573597377
 40
1380.020493621178
 40
1380.020493621178
 40
1380.020493621178
 40
1396.60806462704
 40
1396.60806462704
 40
1396.60806462704
 40
1413.18953352185
 40
1413.18953352185
 40
1413.18953352185
 40
1429.782852859414
 40
1429.782852859414
 40
1429.782852859414
 40
1446.371101331397
 40
1446.371101331397
 40
1446.371101331397
 40
1462.957794071584
 40
1462.957794071584
 40
1462.957794071584
 40
1472.125550606055
 40
1472.125550606055
 40
1472.125550606055
 40
1472.125550606055
 10
1198.517038127392
 20
-153.0120582322827
 30
0.0
 10
1203.952281189385
 20
-154.0289629389501
 30
0.0
 10
1209.395496246851
 20
-155.0053638111078
 30
0.0
 10
1214.843499525666
 20
-155.9504238765189
 30
0.0
 10
1220.291320591832
 20
-156.8954523336711
 30
0.0
 10
1225.744791845356
 20
-157.809291851474
 30
0.0
 10
1231.201947085004
 20
-158.6981266332712
 30
0.0
 10
1236.658903786614
 20
-159.5869290781632
 30
0.0
 10
1242.120077139784
 20
-160.4508143177218
 30
0.0
 10
1247.584207163278
 20
-161.2939048923815
 30
0.0
 10
1253.04844353975
 20
-162.1370118768257
 30
0.0
 10
1258.515956336065
 20
-162.9593787086797
 30
0.0
 10
1263.985002024776
 20
-163.7704367564406
 30
0.0
 10
1269.452939847523
 20
-164.581330507968
 30
0.0
 10
1274.922698879964
 20
-165.3809522060428
 30
0.0
 10
1280.396871530638
 20
-166.1482301039055
 30
0.0
 10
1285.872939804335
 20
-166.915773698475
 30
0.0
 10
1291.35387760098
 20
-167.6510357302975
 30
0.0
 10
1296.838825764276
 20
-168.3510905805151
 30
0.0
 10
1302.323463658499
 20
-169.0511058304737
 30
0.0
 10
1307.81298200234
 20
-169.7160149615579
 30
0.0
 10
1313.306246761296
 20
-170.3431676936709
 30
0.0
 10
1318.799158744007
 20
-170.9702801501749
 30
0.0
 10
1324.296826527577
 20
-171.5597542932646
 30
0.0
 10
1329.797897527864
 20
-172.1086419316091
 30
0.0
 10
1335.301113109907
 20
-172.6577435527247
 30
0.0
 10
1340.808844651598
 20
-173.1663205914658
 30
0.0
 10
1346.319214536451
 20
-173.6356811091678
 30
0.0
 10
1351.832798262214
 20
-174.1053153743794
 30
0.0
 10
1357.350111424439
 20
-174.5358658250159
 30
0.0
 10
1362.869286227167
 20
-174.9318231257243
 30
0.0
 10
1368.379231560528
 20
-175.3271182847341
 30
0.0
 10
1373.891916464787
 20
-175.687872093474
 30
0.0
 10
1379.405697348935
 20
-176.0233699738462
 30
0.0
 10
1384.924664159113
 20
-176.359183403064
 30
0.0
 10
1390.445304097805
 20
-176.6698164008637
 30
0.0
 10
1395.96670021419
 20
-176.9616872739894
 30
0.0
 10
1401.487696171019
 20
-177.2535369939651
 30
0.0
 10
1407.009765341775
 20
-177.5266143318422
 30
0.0
 10
1412.532380604932
 20
-177.785185598862
 30
0.0
 10
1418.05489223931
 20
-178.0437520139374
 30
0.0
 10
1423.578131463822
 20
-178.2878254512291
 30
0.0
 10
1429.101771552949
 20
-178.5204824483596
 30
0.0
 10
1434.626452157375
 20
-178.7531832722352
 30
0.0
 10
1440.151643777172
 20
-178.9744719665125
 30
0.0
 10
1445.67713077907
 20
-179.1867842336587
 30
0.0
 10
1451.201858353193
 20
-179.3990673204207
 30
0.0
 10
1456.726949664283
 20
-179.6023736341456
 30
0.0
 10
1462.252261757655
 20
-179.7985992809886
 30
0.0
 10
1467.777715407534
 20
-179.994829955062
 30
0.0
 10
1473.303431763835
 20
-180.1839884542314
 30
0.0
 10
1478.829312373874
 20
-180.3676351173187
 30
0.0
 10
1484.351805904744
 20
-180.5511692144946
 30
0.0
 10
1489.87448900737
 20
-180.7291876545833
 30
0.0
 10
1495.397280381242
 20
-180.9034304786185
 30
0.0
 10
1500.927088419521
 20
-181.0778946768357
 30
0.0
 10
1506.457020715292
 20
-181.2485859012811
 30
0.0
 10
1511.987084877647
 20
-181.4146567072692
 30
0.0
 10
1517.51373750432
 20
-181.5806250630033
 30
0.0
 10
1523.040537914551
 20
-181.7419695653607
 30
0.0
 10
1528.56750466879
 20
-181.8969875298196
 30
0.0
 10
1534.094493184821
 20
-182.0520061046441
 30
0.0
 10
1539.621670407543
 20
-182.2007038529823
 30
0.0
 10
1545.14898925882
 20
-182.3432539236464
 30
0.0
 10
1550.676455326277
 20
-182.4858077910294
 30
0.0
 10
1556.204088889038
 20
-182.6222122867441
 30
0.0
 10
1561.731824600547
 20
-182.7537154676504
 30
0.0
 10
1567.259449386897
 20
-182.8852160096799
 30
0.0
 10
1572.78719583749
 20
-183.0118182093877
 30
0.0
 10
1578.31501174859
 20
-183.1349093719907
 30
0.0
 10
1583.840797654405
 20
-183.2579553312594
 30
0.0
 10
1589.366663278336
 20
-183.3774895628194
 30
0.0
 10
1594.892549684271
 20
-183.495896293887
 30
0.0
 10
1600.422386700494
 20
-183.6143876772287
 30
0.0
 10
1605.952248115374
 20
-183.7317520564266
 30
0.0
 10
1611.482124508805
 20
-183.8483853291741
 30
0.0
 10
1617.010310589615
 20
-183.9649829507287
 30
0.0
 10
1622.538514447681
 20
-184.0808482485199
 30
0.0
 10
1628.066583997217
 20
-184.2028202340773
 30
0.0
 10
1633.594133496937
 20
-184.3247807451937
 30
0.0
 10
1639.121553493423
 20
-184.4528467325945
 30
0.0
 10
1644.649266957944
 20
-184.5671211998019
 30
0.0
 10
1647.704530967243
 20
-184.6302826985086
 30
0.0
 10
1650.759885328584
 20
-184.6892309102659
 30
0.0
 10
1653.815053566463
 20
-184.7568643644256
 30
0.0
  0
SPLINE
  5
8D
330
1F
100
AcDbEntity
  8
Default
100
AcDbSpline
210
0.0
220
0.0
230
1.0
 70
    24
 71
     2
 72
     6
 73
     3
 74
     0
 42
0.0000000001
 43
0.0000000001
 40
1472.125550606055
 40
1472.125550606055
 40
1472.125550606055
 40
1651.530636791996
 40
1651.530636791996
 40
1651.530636791996
 10
1653.815053566463
 20
-184.7568643644256
 30
0.0
 10
1653.81505356646
 20
-95.05432127145514
 30
0.0
 10
1653.815053566458
 20
-5.351778178484665
 30
0.0
  0
SPLINE
  5
8E
330
1F
100
AcDbEntity
  8
Default
100
AcDbSpline
210
0.0
220
0.0
230
1.0
 70
     8
 71
     3
 72
    92
 73
    88
 74
     0
 42
0.0000000001
 43
0.0000000001
 40
0.0
 40
0.0
 40
0.0
 40
0.0
 40
23.44081523736507
 40
23.44081523736507
 40
23.44081523736507
 40
46.88118110585155
 40
46.88118110585155
 40
46.88118110585155
 40
70.32214489443709
 40
70.32214489443709
 40
70.32214489443709
 40
93.76238673469028
 40
93.76238673469028
 40
93.76238673469028
 40
117.2166791496387
 40
117.2166791496387
 40
117.2166791496387
 40
140.6618554670735
 40
140.6618554670735
 40
140.6618554670735
 40
164.0849570495344
 40
164.0849570495344
 40
164.0849570495344
 40
187.5276764625682
 40
187.5276764625682
 40
187.5276764625682
 40
210.970748779191
 40
210.970748779191
 40
210.970748779191
 40
234.4139522196113
 40
234.4139522196113
 40
234.4139522196113
 40
257.8570336506195
 40
257.8570336506195
 40
257.8570336506195
 40
281.2997030683902
 40
281.2997030683902
 40
281.2997030683902
 40
304.7416529967813
 40
304.7416529967813
 40
304.7416529967813
 40
328.1653387335468
 40
328.1653387335468
 40
328.1653387335468
 40
351.6214404219194
 40
351.6214404219194
 40
351.6214404219194
 40
375.0501604967581
 40
375.0501604967581
 40
375.0501604967581
 40
398.4912768938873
 40
398.4912768938873
 40
398.4912768938873
 40
421.9322631902842
 40
421.9322631902842
 40
421.9322631902842
 40
445.3740141581152
 40
445.3740141581152
 40
445.3740141581152
 40
468.8158161538329
 40
468.8158161538329
 40
468.8158161538329
 40
492.2573778393302
 40
492.2573778393302
 40
492.2573778393302
 40
515.699742199326
 40
515.699742199326
 40
515.699742199326
 40
539.1432414783601
 40
539.1432414783601
 40
539.1432414783601
 40
562.5854742642266
 40
562.5854742642266
 40
562.5854742642266
 40
586.0302044671126
 40
586.0302044671126
 40
586.0302044671126
 40
609.4760431760244
 40
609.4760431760244
 40
609.4760431760244
 40
632.9309441858667
 40
632.9309441858667
 40
632.9309441858667
 40
656.3831480592461
 40
656.3831480592461
 40
656.3831480592461
 40
679.8099750468915
 40
679.8099750468915
 40
679.8099750468915
 40
679.8099750468915
 10
1677.81505744633
 20
3.284946693998791
 30
0.0
 10
1670.001452994889
 20
3.2849484945325
 30
0.0
 10
1662.18784607615
 20
3.288027078384403
 30
0.0
 10
1654.374245838115
 20
3.294947840803843
 30
0.0
 10
1646.560794442599
 20
3.301868471388616
 30
0.0
 10
1638.74734356252
 20
3.312635852541007
 30
0.0
 10
1630.93390369932
 20
3.327022995666312
 30
0.0
 10
1623.120263195256
 20
3.341410508238368
 30
0.0
 10
1615.306626259441
 20
3.359415821028279
 30
0.0
 10
1607.493005107952
 20
3.381498928897827
 30
0.0
 10
1599.679623190273
 20
3.40358136063719
 30
0.0
 10
1591.866250074188
 20
3.429744092806004
 30
0.0
 10
1584.052893448162
 20
3.459106983951187
 30
0.0
 10
1576.234852367568
 20
3.488487479454989
 30
0.0
 10
1568.416818477792
 20
3.521068959879813
 30
0.0
 10
1560.59882095906
 20
3.559979367806818
 30
0.0
 10
1552.783863387555
 20
3.598874645825617
 30
0.0
 10
1544.968919360646
 20
3.644089782153287
 30
0.0
 10
1537.154081841529
 20
3.701327555842454
 30
0.0
 10
1529.346601999427
 20
3.758511440113125
 30
0.0
 10
1521.539167003885
 20
3.827719440168039
 30
0.0
 10
1513.731968165355
 20
3.913547412289972
 30
0.0
 10
1505.918220551826
 20
3.999447377977049
 30
0.0
 10
1498.104580091816
 20
4.101966365098406
 30
0.0
 10
1490.291374709097
 20
4.225800376525285
 30
0.0
 10
1482.478029824828
 20
4.349636598956977
 30
0.0
 10
1474.664906880719
 20
4.494809870149766
 30
0.0
 10
1466.852502166699
 20
4.665748583510094
 30
0.0
 10
1459.040015298267
 20
4.8366890944435
 30
0.0
 10
1451.227928399466
 20
5.033397486778313
 30
0.0
 10
1443.416939187227
 20
5.260280241081546
 30
0.0
 10
1435.605932962612
 20
5.487163489536442
 30
0.0
 10
1427.795583637528
 20
5.744233671222901
 30
0.0
 10
1419.986828023663
 20
6.035933731815931
 30
0.0
 10
1412.178128013144
 20
6.327631715317466
 30
0.0
 10
1404.370442949302
 20
6.653991769743243
 30
0.0
 10
1396.564944163419
 20
7.018817934115305
 30
0.0
 10
1388.759579241278
 20
7.383637841744985
 30
0.0
 10
1380.955654000725
 20
7.786911333299258
 30
0.0
 10
1373.154745619104
 20
8.234281764724074
 30
0.0
 10
1365.359780623512
 20
8.681311351846944
 30
0.0
 10
1357.566906437045
 20
9.172549207638212
 30
0.0
 10
1349.777965643416
 20
9.711593435687064
 30
0.0
 10
1341.978067918218
 20
10.25139595306882
 30
0.0
 10
1334.180946665656
 20
10.83902919681032
 30
0.0
 10
1326.388914341432
 20
11.47954792980022
 30
0.0
 10
1318.605769170002
 20
12.11933612323264
 30
0.0
 10
1310.82634531229
 20
12.81219518285843
 30
0.0
 10
1303.053337968142
 20
13.56219430283477
 30
0.0
 10
1295.27595863898
 20
14.31261526531944
 30
0.0
 10
1287.503349274633
 20
15.12027451731296
 30
0.0
 10
1279.738733952629
 20
15.98987124956261
 30
0.0
 10
1271.973859706255
 20
16.8594969800015
 30
0.0
 10
1264.215070100548
 20
17.79133588811942
 30
0.0
 10
1256.466100011293
 20
18.78970912615091
 30
0.0
 10
1248.716482637187
 20
19.78816576002259
 30
0.0
 10
1240.975030217137
 20
20.8533551755263
 30
0.0
 10
1233.244390427723
 20
21.98953551882551
 30
0.0
 10
1225.513614368994
 20
23.12573588977102
 30
0.0
 10
1217.793294764757
 20
24.33298209602003
 30
0.0
 10
1210.085410388749
 20
25.61539551006649
 30
0.0
 10
1202.377620151226
 20
26.89779326164967
 30
0.0
 10
1194.682384806371
 20
28.25533642432947
 30
0.0
 10
1187.001822198617
 20
29.6919126974451
 30
0.0
 10
1179.320996125811
 20
31.12853824919557
 30
0.0
 10
1171.655083882465
 20
32.6441574287428
 30
0.0
 10
1164.006194749663
 20
34.24218220592775
 30
0.0
 10
1156.357189793411
 20
35.84023118123355
 30
0.0
 10
1148.724841557445
 20
37.52076490561376
 30
0.0
 10
1141.112844001231
 20
39.28676117532859
 30
0.0
 10
1133.5008606372
 20
41.05275415243295
 30
0.0
 10
1125.909458922387
 20
42.9041557542223
 30
0.0
 10
1118.340380762166
 20
44.84590548839424
 30
0.0
 10
1110.771017514506
 20
46.78772835808491
 30
0.0
 10
1103.224058829894
 20
48.81988581726614
 30
0.0
 10
1095.704502743771
 20
50.94651463118271
 30
0.0
 10
1088.183962941658
 20
53.07342165284831
 30
0.0
 10
1080.691512883252
 20
55.29463247021567
 30
0.0
 10
1073.229856928468
 20
57.61985015791493
 30
0.0
 10
1065.766112290533
 20
59.94571872566485
 30
0.0
 10
1058.333858244801
 20
62.37544084141132
 30
0.0
 10
1050.942556281269
 20
64.92240353616853
 30
0.0
 10
1043.553515059771
 20
67.46858720367845
 30
0.0
 10
1036.200421473675
 20
70.13365502049851
 30
0.0
 10
1028.906433453839
 20
72.94105517686717
 30
0.0
 10
1021.618067121461
 20
75.74629158876519
 30
0.0
 10
1014.388566784794
 20
78.69369609651608
 30
0.0
 10
1007.237809314523
 20
81.83422327432777
 30
0.0
  0
SPLINE
  5
8F
330
1F
100
AcDbEntity
  8
Default
100
AcDbSpline
210
0.0
220
0.0
230
1.0
 70
     8
 71
     3
 72
     8
 73
     4
 74
     0
 42
0.0000000001
 43
0.0000000001
 40
679.8099750468915
 40
679.8099750468915
 40
679.8099750468915
 40
679.8099750468915
 40
849.2739475083242
 40
849.2739475083242
 40
849.2739475083242
 40
849.2739475083242
 10
1007.237809314523
 20
81.83422327432777
 30
0.0
 10
1023.137528461012
 20
27.63018046330149
 30
0.0
 10
1039.020557181981
 20
-26.57876818219188
 30
0.0
 10
1054.886151521148
 20
-80.79280472948881
 30
0.0
  0
SPLINE
  5
90
330
1F
100
AcDbEntity
  8
Default
100
AcDbSpline
210
0.0
220
0.0
230
1.0
 70
     8
 71
     3
 72
     8
 73
     4
 74
     0
 42
0.0000000001
 43
0.0000000001
 40
849.2739475083242
 40
849.2739475083242
 40
849.2739475083242
 40
849.2739475083242
 40
1006.469180640031
 40
1006.469180640031
 40
1006.469180640031
 40
1006.469180640031
 10
1054.886151521148
 20
-80.79280472948881
 30
0.0
 10
1100.797399858783
 20
-106.0465322867158
 30
0.0
 10
1146.708302685746
 20
-131.300888015028
 30
0.0
 10
1192.618910167859
 20
-156.5558566479494
 30
0.0
  0
SPLINE
  5
91
330
1F
100
AcDbEntity
  8
Default
100
AcDbSpline
210
0.0
220
0.0
230
1.0
 70
     8
 71
     3
 72
    92
 73
    88
 74
     0
 42
0.0000000001
 43
0.0000000001
 40
1006.469180640031
 40
1006.469180640031
 40
1006.469180640031
 40
1006.469180640031
 40
1023.246519586897
 40
1023.246519586897
 40
1023.246519586897
 40
1040.028564538284
 40
1040.028564538284
 40
1040.028564538284
 40
1056.814180430506
 40
1056.814180430506
 40
1056.814180430506
 40
1073.59837027297
 40
1073.59837027297
 40
1073.59837027297
 40
1090.385551243999
 40
1090.385551243999
 40
1090.385551243999
 40
1107.173379740329
 40
1107.173379740329
 40
1107.173379740329
 40
1123.952881502577
 40
1123.952881502577
 40
1123.952881502577
 40
1140.731355332444
 40
1140.731355332444
 40
1140.731355332444
 40
1157.499824965215
 40
1157.499824965215
 40
1157.499824965215
 40
1174.301232971454
 40
1174.301232971454
 40
1174.301232971454
 40
1191.070982512885
 40
1191.070982512885
 40
1191.070982512885
 40
1207.851125656014
 40
1207.851125656014
 40
1207.851125656014
 40
1224.639442276639
 40
1224.639442276639
 40
1224.639442276639
 40
1241.429722792833
 40
1241.429722792833
 40
1241.429722792833
 40
1258.20366589226
 40
1258.20366589226
 40
1258.20366589226
 40
1274.990495273257
 40
1274.990495273257
 40
1274.990495273257
 40
1291.775394965224
 40
1291.775394965224
 40
1291.775394965224
 40
1308.561176605691
 40
1308.561176605691
 40
1308.561176605691
 40
1325.340686352215
 40
1325.340686352215
 40
1325.340686352215
 40
1342.12220550648
 40
1342.12220550648
 40
1342.12220550648
 40
1358.903544228034
 40
1358.903544228034
 40
1358.903544228034
 40
1375.683301940587
 40
1375.683301940587
 40
1375.683301940587
 40
1392.46440210731
 40
1392.46440210731
 40
1392.46440210731
 40
1409.279128171597
 40
1409.279128171597
 40
1409.279128171597
 40
1426.027824000959
 40
1426.027824000959
 40
1426.027824000959
 40
1442.807912548675
 40
1442.807912548675
 40
1442.807912548675
 40
1459.590580641922
 40
1459.590580641922
 40
1459.590580641922
 40
1476.372948061184
 40
1476.372948061184
 40
1476.372948061184
 40
1493.154521298657
 40
1493.154521298657
 40
1493.154521298657
 40
1493.154521298657
 10
1192.618910167859
 20
-156.5558566479494
 30
0.0
 10
1198.125262162684
 20
-157.5327886381813
 30
0.0
 10
1203.638733653428
 20
-158.4715219331488
 30
0.0
 10
1209.156472315019
 20
-159.3809344782323
 30
0.0
 10
1214.675961003689
 20
-160.2906354560737
 30
0.0
 10
1220.200473136403
 20
-161.1711290002338
 30
0.0
 10
1225.728323680784
 20
-162.027904884791
 30
0.0
 10
1231.257468259357
 20
-162.8848813350614
 30
0.0
 10
1236.790424831126
 20
-163.7182055702121
 30
0.0
 10
1242.326173154769
 20
-164.5309609960491
 30
0.0
 10
1247.861528800522
 20
-165.3436587691415
 30
0.0
 10
1253.400010650989
 20
-166.1358322465894
 30
0.0
 10
1258.940885842522
 20
-166.909622830854
 30
0.0
 10
1264.482805571672
 20
-167.6835592861853
 30
0.0
 10
1270.027385726591
 20
-168.439147068648
 30
0.0
 10
1275.574202276748
 20
-169.1768285132996
 30
0.0
 10
1281.121265280921
 20
-169.9145427343292
 30
0.0
 10
1286.670861077539
 20
-170.6343978896368
 30
0.0
 10
1292.223737936108
 20
-171.3264614514512
 30
0.0
 10
1297.773870196699
 20
-172.0181829498085
 30
0.0
 10
1303.327837321047
 20
-172.6821783170603
 30
0.0
 10
1308.886189720764
 20
-173.3029771463284
 30
0.0
 10
1314.444281633357
 20
-173.9237468824244
 30
0.0
 10
1320.007821858799
 20
-174.5015072102021
 30
0.0
 10
1325.575243641552
 20
-175.0290951942045
 30
0.0
 10
1331.142891368903
 20
-175.556704589492
 30
0.0
 10
1336.705805685288
 20
-176.0332793793427
 30
0.0
 10
1342.281978740777
 20
-176.4614509061882
 30
0.0
 10
1347.865835826143
 20
-176.8902124582669
 30
0.0
 10
1353.454054404442
 20
-177.2698872828682
 30
0.0
 10
1359.043831123718
 20
-177.6083114683772
 30
0.0
 10
1364.623422241946
 20
-177.94611898279
 30
0.0
 10
1370.205856547278
 20
-178.242685023755
 30
0.0
 10
1375.789043340429
 20
-178.5111067370979
 30
0.0
 10
1381.375918437773
 20
-178.7797057722767
 30
0.0
 10
1386.964315135146
 20
-179.0202601998101
 30
0.0
 10
1392.553247885571
 20
-179.2398109436253
 30
0.0
 10
1398.145010586471
 20
-179.459472856739
 30
0.0
 10
1403.737697952094
 20
-179.6581035659149
 30
0.0
 10
1409.330743319443
 20
-179.8407715746234
 30
0.0
 10
1414.924503515064
 20
-180.0234629295142
 30
0.0
 10
1420.518841978974
 20
-180.1902103835698
 30
0.0
 10
1426.113426154416
 20
-180.3446265794414
 30
0.0
 10
1431.702601378732
 20
-180.4988934827775
 30
0.0
 10
1437.292152117278
 20
-180.6408300544329
 30
0.0
 10
1442.881876451566
 20
-180.7730022472206
 30
0.0
 10
1448.475916085658
 20
-180.9052764777125
 30
0.0
 10
1454.070207929057
 20
-181.02779573468
 30
0.0
 10
1459.66461951988
 20
-181.142764186704
 30
0.0
 10
1465.258401061502
 20
-181.2577196908462
 30
0.0
 10
1470.852351005404
 20
-181.3651164112769
 30
0.0
 10
1476.446386870063
 20
-181.4665982713859
 30
0.0
 10
1482.040724758343
 20
-181.5680856105305
 30
0.0
 10
1487.635176763698
 20
-181.6636627468681
 30
0.0
 10
1493.229680772305
 20
-181.755327029985
 30
0.0
 10
1498.822098289397
 20
-181.84695712656
 30
0.0
 10
1504.41458684713
 20
-181.934674346777
 30
0.0
 10
1510.007151845847
 20
-182.0166103416138
 30
0.0
 10
1515.600387946647
 20
-182.0985561686862
 30
0.0
 10
1521.19372136617
 20
-182.1747227733301
 30
0.0
 10
1526.787128921707
 20
-182.2435341197745
 30
0.0
 10
1532.380480970612
 20
-182.3123447833639
 30
0.0
 10
1537.973938506917
 20
-182.3737984338998
 30
0.0
 10
1543.567441931494
 20
-182.4282354628192
 30
0.0
 10
1549.160426210196
 20
-182.4826674393132
 30
0.0
 10
1554.75349011725
 20
-182.53008841472
 30
0.0
 10
1560.346577174662
 20
-182.5719397382106
 30
0.0
 10
1565.940118683146
 20
-182.6137944622167
 30
0.0
 10
1571.533708138489
 20
-182.6500665477884
 30
0.0
 10
1577.127308369893
 20
-182.6826288320083
 30
0.0
 10
1582.732121483444
 20
-182.7152563902987
 30
0.0
 10
1588.336957604487
 20
-182.7441786549321
 30
0.0
 10
1593.941794586637
 20
-182.7722423798084
 30
0.0
 10
1599.524623193462
 20
-182.8001959075477
 30
0.0
 10
1605.10745611444
 20
-182.8272890024468
 30
0.0
 10
1610.690286420739
 20
-182.854899151467
 30
0.0
 10
1616.283580449063
 20
-182.882561049315
 30
0.0
 10
1621.876873724435
 20
-182.9107430576216
 30
0.0
 10
1627.47014102215
 20
-182.9432648696109
 30
0.0
 10
1633.064268619462
 20
-182.9757916837746
 30
0.0
 10
1638.658371134992
 20
-183.0126657023643
 30
0.0
 10
1644.25248697351
 20
-183.0471119667027
 30
0.0
 10
1649.846493292368
 20
-183.0815575566635
 30
0.0
 10
1655.440554322973
 20
-183.1135745381871
 30
0.0
 10
1661.034368164656
 20
-183.1703930419831
 30
0.0
 10
1666.627843187751
 20
-183.227208104269
 30
0.0
 10
1672.221334537473
 20
-183.3088247397488
 30
0.0
 10
1677.815057446335
 20
-183.3088226030645
 30
0.0
  0
ENDSEC
  0
SECTION
  2
OBJECTS
  0
DICTIONARY
  5
C
330
0
100
AcDbDictionary
281
     1
  3
ACAD_DETAILVIEWSTYLE
350
CD
  3
ACAD_GROUP
350
D
  3
ACAD_LAYOUT
350
1A
  3
ACAD_MATERIAL
350
43
  3
ACAD_MLEADERSTYLE
350
5B
  3
ACAD_MLINESTYLE
350
17
  3
ACAD_PLOTSETTINGS
350
19
  3
ACAD_PLOTSTYLENAME
350
E
  3
ACAD_SCALELIST
350
47
  3
ACAD_SECTIONVIEWSTYLE
350
CE
  3
ACAD_TABLESTYLE
350
59
  3
ACAD_VISUALSTYLE
350
2A
  3
ACDB_RECOMPOSE_DATA
350
CA
  3
AcDbVariableDictionary
350
92
  0
SUN
  5
5D
330
29
100
AcDbSun
 90
        1
290
     0
 63
     7
421
 16777215
 40
1.0
291
     1
 91
  2455826
 92
 54000000
292
     0
 70
     2
 71
   256
280
     1
  0
DICTIONARY
  5
CD
102
{ACAD_REACTORS
330
C
102
}
330
C
100
AcDbDictionary
281
     1
  0
DICTIONARY
  5
D
102
{ACAD_REACTORS
330
C
102
}
330
C
100
AcDbDictionary
281
     1
  0
DICTIONARY
  5
1A
102
{ACAD_REACTORS
330
C
102
}
330
C
100
AcDbDictionary
281
     1
  3
Layout1
350
1E
  3
Layout2
350
26
  3
Model
350
22
  0
DICTIONARY
  5
43
102
{ACAD_REACTORS
330
C
102
}
330
C
100
AcDbDictionary
281
     1
  3
ByBlock
350
45
  3
ByLayer
350
44
  3
Global
350
46
  0
DICTIONARY
  5
5B
102
{ACAD_REACTORS
330
C
102
}
330
C
100
AcDbDictionary
281
     1
  3
Standard
350
5C
  0
DICTIONARY
  5
17
102
{ACAD_REACTORS
330
C
102
}
330
C
100
AcDbDictionary
281
     1
  3
Standard
350
18
  0
DICTIONARY
  5
19
102
{ACAD_REACTORS
330
C
102
}
330
C
100
AcDbDictionary
281
     1
  0
ACDBDICTIONARYWDFLT
  5
E
102
{ACAD_REACTORS
330
C
102
}
330
C
100
AcDbDictionary
281
     1
  3
Normal
350
F
100
AcDbDictionaryWithDefault
340
F
  0
DICTIONARY
  5
47
102
{ACAD_REACTORS
330
C
102
}
330
C
100
AcDbDictionary
281
     1
  3
A0
350
48
  3
A1
350
49
  3
A2
350
4A
  3
A3
350
4B
  3
A4
350
4C
  3
A5
350
4D
  3
A6
350
4E
  3
A7
350
4F
  3
A8
350
50
  3
A9
350
51
  3
B1
350
52
  3
B2
350
53
  3
B3
350
54
  3
B4
350
55
  3
B5
350
56
  3
B6
350
57
  3
B7
350
58
  0
DICTIONARY
  5
CE
102
{ACAD_REACTORS
330
C
102
}
330
C
100
AcDbDictionary
281
     1
  0
DICTIONARY
  5
59
102
{ACAD_REACTORS
330
C
102
}
330
C
100
AcDbDictionary
281
     1
  3
Standard
350
5A
  0
DICTIONARY
  5
2A
102
{ACAD_REACTORS
330
C
102
}
330
C
100
AcDbDictionary
281
     1
  3
2dWireframe
350
2F
  3
Basic
350
32
  3
Brighten
350
36
  3
ColorChange
350
3A
  3
Conceptual
350
34
  3
Dim
350
35
  3
EdgeColorOff
350
3D
  3
Facepattern
350
39
  3
Flat
350
2B
  3
FlatWithEdges
350
2C
  3
Gouraud
350
2D
  3
GouraudWithEdges
350
2E
  3
Hidden
350
31
  3
JitterOff
350
3B
  3
Linepattern
350
38
  3
OverhangOff
350
3C
  3
Realistic
350
33
  3
Shaded
350
42
  3
Shaded with edges
350
41
  3
Shades of Gray
350
3E
  3
Sketchy
350
3F
  3
Thicken
350
37
  3
Wireframe
350
30
  3
X-Ray
350
40
  0
XRECORD
  5
CA
102
{ACAD_REACTORS
330
C
102
}
330
C
100
AcDbXrecord
280
     1
 90
        1
330
5A
  0
DICTIONARY
  5
92
102
{ACAD_REACTORS
330
C
102
}
330
C
100
AcDbDictionary
281
     1
  3
CANNOSCALE
350
93
  3
CMLEADERSTYLE
350
CC
  3
CTABLESTYLE
350
CB
  3
XCLIPFRAME
350
94
  0
LAYOUT
  5
1E
102
{ACAD_REACTORS
330
1A
102
}
330
1A
100
AcDbPlotSettings
  1

  2
none_device
  4

  6

 40
0.0
 41
0.0
 42
0.0
 43
0.0
 44
0.0
 45
0.0
 46
0.0
 47
0.0
 48
0.0
 49
0.0
140
0.0
141
0.0
142
1.0
143
1.0
 70
   688
 72
     0
 73
     0
 74
     5
  7

 75
    16
 76
     0
 77
     2
 78
   300
147
1.0
148
0.0
149
0.0
100
AcDbLayout
  1
Layout1
 70
     1
 71
     1
 10
0.0
 20
0.0
 11
12.0
 21
9.0
 12
0.0
 22
0.0
 32
0.0
 14
1.000000000000000E+20
 24
1.000000000000000E+20
 34
1.000000000000000E+20
 15
-1.000000000000000E+20
 25
-1.000000000000000E+20
 35
-1.000000000000000E+20
146
0.0
 13
0.0
 23
0.0
 33
0.0
 16
1.0
 26
0.0
 36
0.0
 17
0.0
 27
1.0
 37
0.0
 76
     0
330
1B
  0
LAYOUT
  5
26
102
{ACAD_REACTORS
330
1A
102
}
330
1A
100
AcDbPlotSettings
  1

  2
none_device
  4

  6

 40
0.0
 41
0.0
 42
0.0
 43
0.0
 44
0.0
 45
0.0
 46
0.0
 47
0.0
 48
0.0
 49
0.0
140
0.0
141
0.0
142
1.0
143
1.0
 70
   688
 72
     0
 73
     0
 74
     5
  7

 75
    16
 76
     0
 77
     2
 78
   300
147
1.0
148
0.0
149
0.0
100
AcDbLayout
  1
Layout2
 70
     1
 71
     2
 10
0.0
 20
0.0
 11
0.0
 21
0.0
 12
0.0
 22
0.0
 32
0.0
 14
0.0
 24
0.0
 34
0.0
 15
0.0
 25
0.0
 35
0.0
146
0.0
 13
0.0
 23
0.0
 33
0.0
 16
1.0
 26
0.0
 36
0.0
 17
0.0
 27
1.0
 37
0.0
 76
     0
330
23
  0
LAYOUT
  5
22
102
{ACAD_REACTORS
330
1A
102
}
330
1A
100
AcDbPlotSettings
  1

  2
none_device
  4
Letter_(8.50_x_11.00_Inches)
  6

 40
6.35
 41
6.35
 42
6.35000508
 43
6.35000508
 44
215.9
 45
279.4
 46
0.0
 47
0.0
 48
0.0
 49
0.0
140
0.0
141
0.0
142
1.0
143
1.0
 70
  1712
 72
     0
 73
     0
 74
     0
  7

 75
     0
 76
     0
 77
     2
 78
   300
147
1.0
148
0.0
149
0.0
100
AcDbLayout
  1
Model
 70
     1
 71
     0
 10
0.0
 20
0.0
 11
12.0
 21
9.0
 12
0.0
 22
0.0
 32
0.0
 14
994.2044898611646
 24
-184.7568643644256
 34
0.0
 15
2318.498223919803
 25
141.8294710124817
 35
0.0
146
0.0
 13
0.0
 23
0.0
 33
0.0
 16
1.0
 26
0.0
 36
0.0
 17
0.0
 27
1.0
 37
0.0
 76
     0
330
1F
331
29
  0
MATERIAL
  5
45
102
{ACAD_REACTORS
330
43
102
}
330
43
100
AcDbMaterial
  1
ByBlock
 72
     1
 94
      127
  0
MATERIAL
  5
44
102
{ACAD_REACTORS
330
43
102
}
330
43
100
AcDbMaterial
  1
ByLayer
 72
     1
 94
      127
  0
MATERIAL
  5
46
102
{ACAD_REACTORS
330
43
102
}
330
43
100
AcDbMaterial
  1
Global
 72
     1
 94
      127
  0
MLEADERSTYLE
  5
5C
102
{ACAD_REACTORS
330
5B
102
}
102
{ACAD_XDICTIONARY
360
C8
102
}
330
5B
100
AcDbMLeaderStyle
170
     2
171
     1
172
     0
 90
        2
 40
0.0
 41
0.0
173
     1
 91
-1056964608
340
14
 92
       -2
290
     1
 42
0.09
291
     1
 43
0.36
  3
Standard
341
0
 44
0.18
300

342
11
174
     1
178
     6
175
     1
176
     0
 93
-1056964608
 45
0.18
292
     0
297
     0
 46
0.18
343
0
 94
-1056964608
 47
1.0
 49
1.0
140
1.0
293
     1
141
0.0
294
     1
177
     0
142
1.0
295
     0
296
     0
143
0.125
1001
ACAD_MLEADERVER
1070
     2
  0
MLINESTYLE
  5
18
102
{ACAD_REACTORS
330
17
102
}
330
17
100
AcDbMlineStyle
  2
Standard
 70
     0
  3

 62
   256
 51
90.0
 52
90.0
 71
     2
 49
0.5
 62
   256
  6
BYLAYER
 49
-0.5
 62
   256
  6
BYLAYER
  0
ACDBPLACEHOLDER
  5
F
102
{ACAD_REACTORS
330
E
102
}
330
E
  0
SCALE
  5
48
102
{ACAD_REACTORS
330
47
102
}
330
47
100
AcDbScale
 70
     0
300
1:1
140
1.0
141
1.0
290
     1
  0
SCALE
  5
49
102
{ACAD_REACTORS
330
47
102
}
330
47
100
AcDbScale
 70
     0
300
1/128" = 1'-0"
140
0.0078125
141
12.0
290
     0
  0
SCALE
  5
4A
102
{ACAD_REACTORS
330
47
102
}
330
47
100
AcDbScale
 70
     0
300
1/64" = 1'-0"
140
0.015625
141
12.0
290
     0
  0
SCALE
  5
4B
102
{ACAD_REACTORS
330
47
102
}
330
47
100
AcDbScale
 70
     0
300
1/32" = 1'-0"
140
0.03125
141
12.0
290
     0
  0
SCALE
  5
4C
102
{ACAD_REACTORS
330
47
102
}
330
47
100
AcDbScale
 70
     0
300
1/16" = 1'-0"
140
0.0625
141
12.0
290
     0
  0
SCALE
  5
4D
102
{ACAD_REACTORS
330
47
102
}
330
47
100
AcDbScale
 70
     0
300
3/32" = 1'-0"
140
0.09375
141
12.0
290
     0
  0
SCALE
  5
4E
102
{ACAD_REACTORS
330
47
102
}
330
47
100
AcDbScale
 70
     0
300
1/8" = 1'-0"
140
0.125
141
12.0
290
     0
  0
SCALE
  5
4F
102
{ACAD_REACTORS
330
47
102
}
330
47
100
AcDbScale
 70
     0
300
3/16" = 1'-0"
140
0.1875
141
12.0
290
     0
  0
SCALE
  5
50
102
{ACAD_REACTORS
330
47
102
}
330
47
100
AcDbScale
 70
     0
300
1/4" = 1'-0"
140
0.25
141
12.0
290
     0
  0
SCALE
  5
51
102
{ACAD_REACTORS
330
47
102
}
330
47
100
AcDbScale
 70
     0
300
3/8" = 1'-0"
140
0.375
141
12.0
290
     0
  0
SCALE
  5
52
102
{ACAD_REACTORS
330
47
102
}
330
47
100
AcDbScale
 70
     0
300
1/2" = 1'-0"
140
0.5
141
12.0
290
     0
  0
SCALE
  5
53
102
{ACAD_REACTORS
330
47
102
}
330
47
100
AcDbScale
 70
     0
300
3/4" = 1'-0"
140
0.75
141
12.0
290
     0
  0
SCALE
  5
54
102
{ACAD_REACTORS
330
47
102
}
330
47
100
AcDbScale
 70
     0
300
1" = 1'-0"
140
1.0
141
12.0
290
     0
  0
SCALE
  5
55
102
{ACAD_REACTORS
330
47
102
}
330
47
100
AcDbScale
 70
     0
300
1-1/2" = 1'-0"
140
1.5
141
12.0
290
     0
  0
SCALE
  5
56
102
{ACAD_REACTORS
330
47
102
}
330
47
100
AcDbScale
 70
     0
300
3" = 1'-0"
140
3.0
141
12.0
290
     0
  0
SCALE
  5
57
102
{ACAD_REACTORS
330
47
102
}
330
47
100
AcDbScale
 70
     0
300
6" = 1'-0"
140
6.0
141
12.0
290
     0
  0
SCALE
  5
58
102
{ACAD_REACTORS
330
47
102
}
330
47
100
AcDbScale
 70
     0
300
1'-0" = 1'-0"
140
12.0
141
12.0
290
     0
  0
TABLESTYLE
  5
5A
102
{ACAD_REACTORS
330
59
102
}
102
{ACAD_XDICTIONARY
360
C5
102
}
330
59
100
AcDbTableStyle
  3
Standard
 70
     0
 71
     0
 40
0.06
 41
0.06
280
     0
281
     0
  7
Standard
140
0.18
170
     2
 62
     0
 63
   257
283
     0
 90
        4
 91
        0
  1

274
    -2
284
     1
 64
     0
275
    -2
285
     1
 65
     0
276
    -2
286
     1
 66
     0
277
    -2
287
     1
 67
     0
278
    -2
288
     1
 68
     0
279
    -2
289
     1
 69
     0
  7
Standard
140
0.25
170
     5
 62
     0
 63
   257
283
     0
 90
        4
 91
        0
  1

274
    -2
284
     1
 64
     0
275
    -2
285
     1
 65
     0
276
    -2
286
     1
 66
     0
277
    -2
287
     1
 67
     0
278
    -2
288
     1
 68
     0
279
    -2
289
     1
 69
     0
  7
Standard
140
0.18
170
     5
 62
     0
 63
   257
283
     0
 90
        4
 91
        0
  1

274
    -2
284
     1
 64
     0
275
    -2
285
     1
 65
     0
276
    -2
286
     1
 66
     0
277
    -2
287
     1
 67
     0
278
    -2
288
     1
 68
     0
279
    -2
289
     1
 69
     0
  0
VISUALSTYLE
  5
2F
102
{ACAD_REACTORS
330
2A
102
}
102
{ACAD_XDICTIONARY
360
9D
102
}
330
2A
100
AcDbVisualStyle
  2
2dWireframe
 70
     4
 71
     0
 72
     2
 73
     0
 90
        0
 40
0.6
 41
30.0
 62
     5
 63
     7
421
 16777215
 74
     1
 91
        4
 64
     7
 65
   257
 75
     1
175
     1
 42
1.0
 92
        0
 66
   257
 43
1.0
 76
     1
 77
     6
 78
     2
 67
     7
 79
     5
170
     0
171
     0
290
     0
174
     0
 93
        1
 44
0.0
173
     0
291
     0
 45
0.0
  0
VISUALSTYLE
  5
32
102
{ACAD_REACTORS
330
2A
102
}
102
{ACAD_XDICTIONARY
360
A3
102
}
330
2A
100
AcDbVisualStyle
  2
Basic
 70
     7
 71
     1
 72
     0
 73
     1
 90
        0
 40
0.6
 41
30.0
 62
     5
 63
     7
421
 16777215
 74
     0
 91
        4
 64
     7
 65
   257
 75
     1
175
     1
 42
1.0
 92
        8
 66
     7
 43
1.0
 76
     1
 77
     6
 78
     2
 67
     7
 79
     5
170
     0
171
     0
290
     0
174
     0
 93
        1
 44
0.0
173
     0
291
     1
 45
0.0
  0
VISUALSTYLE
  5
36
102
{ACAD_REACTORS
330
2A
102
}
102
{ACAD_XDICTIONARY
360
AB
102
}
330
2A
100
AcDbVisualStyle
  2
Brighten
 70
    12
 71
     2
 72
     2
 73
     0
 90
        0
 40
0.6
 41
30.0
 62
     5
 63
     7
421
 16777215
 74
     1
 91
        4
 64
     7
 65
   257
 75
     1
175
     1
 42
1.0
 92
        8
 66
     7
 43
1.0
 76
     1
 77
     6
 78
     2
 67
     7
 79
     5
170
     0
171
     0
290
     0
174
     0
 93
        1
 44
50.0
173
     0
291
     1
 45
0.0
  0
VISUALSTYLE
  5
3A
102
{ACAD_REACTORS
330
2A
102
}
102
{ACAD_XDICTIONARY
360
B3
102
}
330
2A
100
AcDbVisualStyle
  2
ColorChange
 70
    16
 71
     2
 72
     2
 73
     3
 90
        0
 40
0.6
 41
30.0
 62
     5
 63
     8
421
  8421504
 74
     1
 91
        4
 64
     7
 65
   257
 75
     1
175
     1
 42
1.0
 92
        8
 66
     8
424
  8421504
 43
1.0
 76
     1
 77
     6
 78
     2
 67
     7
 79
     5
170
     0
171
     0
290
     0
174
     0
 93
        1
 44
0.0
173
     0
291
     1
 45
0.0
  0
VISUALSTYLE
  5
34
102
{ACAD_REACTORS
330
2A
102
}
102
{ACAD_XDICTIONARY
360
A7
102
}
330
2A
100
AcDbVisualStyle
  2
Conceptual
 70
     9
 71
     3
 72
     2
 73
     0
 90
        0
 40
0.6
 41
30.0
 62
     5
 63
     7
421
 16777215
 74
     2
 91
        2
 64
     7
 65
   257
 75
     1
175
     1
 42
179.0
 92
        8
 66
     7
 43
1.0
 76
     1
 77
     6
 78
     2
 67
     7
 79
     3
170
     0
171
     0
290
     0
174
     0
 93
        1
 44
0.0
173
     0
291
     0
 45
0.0
  0
VISUALSTYLE
  5
35
102
{ACAD_REACTORS
330
2A
102
}
102
{ACAD_XDICTIONARY
360
A9
102
}
330
2A
100
AcDbVisualStyle
  2
Dim
 70
    11
 71
     2
 72
     2
 73
     0
 90
        0
 40
0.6
 41
30.0
 62
     5
 63
     7
421
 16777215
 74
     1
 91
        4
 64
     7
 65
   257
 75
     1
175
     1
 42
1.0
 92
        8
 66
     7
 43
1.0
 76
     1
 77
     6
 78
     2
 67
     7
 79
     5
170
     0
171
     0
290
     0
174
     0
 93
        1
 44
-50.0
173
     0
291
     1
 45
0.0
  0
VISUALSTYLE
  5
3D
102
{ACAD_REACTORS
330
2A
102
}
102
{ACAD_XDICTIONARY
360
B9
102
}
330
2A
100
AcDbVisualStyle
  2
EdgeColorOff
 70
    22
 71
     2
 72
     2
 73
     0
 90
        0
 40
0.6
 41
30.0
 62
     5
 63
     7
421
 16777215
 74
     1
 91
        4
 64
     7
 65
   257
 75
     1
175
     1
 42
1.0
 92
        8
 66
     7
 43
1.0
 76
     1
 77
     6
 78
     2
 67
     7
 79
     5
170
     0
171
     0
290
     0
174
     0
 93
        1
 44
0.0
173
     0
291
     1
 45
0.0
  0
VISUALSTYLE
  5
39
102
{ACAD_REACTORS
330
2A
102
}
102
{ACAD_XDICTIONARY
360
B1
102
}
330
2A
100
AcDbVisualStyle
  2
Facepattern
 70
    15
 71
     2
 72
     2
 73
     0
 90
        0
 40
0.6
 41
30.0
 62
     5
 63
     7
421
 16777215
 74
     1
 91
        4
 64
     7
 65
   257
 75
     1
175
     1
 42
1.0
 92
        8
 66
     7
 43
1.0
 76
     1
 77
     6
 78
     2
 67
     7
 79
     5
170
     0
171
     0
290
     0
174
     0
 93
        1
 44
0.0
173
     0
291
     1
 45
0.0
  0
VISUALSTYLE
  5
2B
102
{ACAD_REACTORS
330
2A
102
}
102
{ACAD_XDICTIONARY
360
95
102
}
330
2A
100
AcDbVisualStyle
  2
Flat
 70
     0
 71
     2
 72
     1
 73
     1
 90
        2
 40
0.6
 41
30.0
 62
     5
 63
     7
421
 16777215
 74
     0
 91
        0
 64
     7
 65
   257
 75
     1
175
     1
 42
1.0
 92
        8
 66
     7
 43
1.0
 76
     1
 77
     6
 78
     2
 67
     7
 79
     5
170
     0
171
     0
290
     0
174
     0
 93
       13
 44
0.0
173
     0
291
     1
 45
0.0
  0
VISUALSTYLE
  5
2C
102
{ACAD_REACTORS
330
2A
102
}
102
{ACAD_XDICTIONARY
360
97
102
}
330
2A
100
AcDbVisualStyle
  2
FlatWithEdges
 70
     1
 71
     2
 72
     1
 73
     1
 90
        2
 40
0.6
 41
30.0
 62
     5
 63
     7
421
 16777215
 74
     1
 91
        0
 64
     7
 65
   257
 75
     1
175
     1
 42
1.0
 92
        0
 66
   257
 43
1.0
 76
     1
 77
     6
 78
     2
 67
     7
 79
     5
170
     0
171
     0
290
     0
174
     0
 93
       13
 44
0.0
173
     0
291
     1
 45
0.0
  0
VISUALSTYLE
  5
2D
102
{ACAD_REACTORS
330
2A
102
}
102
{ACAD_XDICTIONARY
360
99
102
}
330
2A
100
AcDbVisualStyle
  2
Gouraud
 70
     2
 71
     2
 72
     2
 73
     1
 90
        2
 40
0.6
 41
30.0
 62
     5
 63
     7
421
 16777215
 74
     0
 91
        0
 64
     7
 65
   257
 75
     1
175
     1
 42
1.0
 92
        0
 66
     7
 43
1.0
 76
     1
 77
     6
 78
     2
 67
     7
 79
     5
170
     0
171
     0
290
     0
174
     0
 93
       13
 44
0.0
173
     0
291
     1
 45
0.0
  0
VISUALSTYLE
  5
2E
102
{ACAD_REACTORS
330
2A
102
}
102
{ACAD_XDICTIONARY
360
9B
102
}
330
2A
100
AcDbVisualStyle
  2
GouraudWithEdges
 70
     3
 71
     2
 72
     2
 73
     1
 90
        2
 40
0.6
 41
30.0
 62
     5
 63
     7
421
 16777215
 74
     1
 91
        0
 64
     7
 65
   257
 75
     1
175
     1
 42
1.0
 92
        0
 66
   257
 43
1.0
 76
     1
 77
     6
 78
     2
 67
     7
 79
     5
170
     0
171
     0
290
     0
174
     0
 93
       13
 44
0.0
173
     0
291
     1
 45
0.0
  0
VISUALSTYLE
  5
31
102
{ACAD_REACTORS
330
2A
102
}
102
{ACAD_XDICTIONARY
360
A1
102
}
330
2A
100
AcDbVisualStyle
  2
Hidden
 70
     6
 71
     1
 72
     2
 73
     2
 90
        0
 40
0.6
 41
30.0
 62
     5
 63
     7
421
 16777215
 74
     2
 91
        2
 64
     7
 65
   257
 75
     2
175
     1
 42
40.0
 92
        0
 66
   257
 43
1.0
 76
     1
 77
     6
 78
     2
 67
     7
 79
     3
170
     0
171
     0
290
     0
174
     0
 93
        1
 44
0.0
173
     0
291
     0
 45
0.0
  0
VISUALSTYLE
  5
3B
102
{ACAD_REACTORS
330
2A
102
}
102
{ACAD_XDICTIONARY
360
B5
102
}
330
2A
100
AcDbVisualStyle
  2
JitterOff
 70
    20
 71
     2
 72
     2
 73
     0
 90
        0
 40
0.6
 41
30.0
 62
     5
 63
     7
421
 16777215
 74
     1
 91
        4
 64
     7
 65
   257
 75
     1
175
     1
 42
1.0
 92
       10
 66
     7
 43
1.0
 76
     1
 77
     6
 78
     2
 67
     7
 79
     5
170
     0
171
     0
290
     0
174
     0
 93
        1
 44
0.0
173
     0
291
     1
 45
0.0
  0
VISUALSTYLE
  5
38
102
{ACAD_REACTORS
330
2A
102
}
102
{ACAD_XDICTIONARY
360
AF
102
}
330
2A
100
AcDbVisualStyle
  2
Linepattern
 70
    14
 71
     2
 72
     2
 73
     0
 90
        0
 40
0.6
 41
30.0
 62
     5
 63
     7
421
 16777215
 74
     1
 91
        4
 64
     7
 65
   257
 75
     7
175
     7
 42
1.0
 92
        8
 66
     7
 43
1.0
 76
     1
 77
     6
 78
     2
 67
     7
 79
     5
170
     0
171
     0
290
     0
174
     0
 93
        1
 44
0.0
173
     0
291
     1
 45
0.0
  0
VISUALSTYLE
  5
3C
102
{ACAD_REACTORS
330
2A
102
}
102
{ACAD_XDICTIONARY
360
B7
102
}
330
2A
100
AcDbVisualStyle
  2
OverhangOff
 70
    21
 71
     2
 72
     2
 73
     0
 90
        0
 40
0.6
 41
30.0
 62
     5
 63
     7
421
 16777215
 74
     1
 91
        4
 64
     7
 65
   257
 75
     1
175
     1
 42
1.0
 92
        9
 66
     7
 43
1.0
 76
     1
 77
     6
 78
     2
 67
     7
 79
     5
170
     0
171
     0
290
     0
174
     0
 93
        1
 44
0.0
173
     0
291
     1
 45
0.0
  0
VISUALSTYLE
  5
33
102
{ACAD_REACTORS
330
2A
102
}
102
{ACAD_XDICTIONARY
360
A5
102
}
330
2A
100
AcDbVisualStyle
  2
Realistic
 70
     8
 71
     2
 72
     3
 73
     0
 90
        2
 40
0.6
 41
30.0
 62
     5
 63
     7
421
 16777215
 74
     0
 91
        0
 64
     7
 65
   257
 75
     1
175
     1
 42
1.0
 92
        8
 66
   257
 43
1.0
 76
     1
 77
     6
 78
     2
 67
     7
 79
     3
170
     0
171
     0
290
     0
174
     0
 93
       13
 44
0.0
173
     0
291
     0
 45
0.0
  0
VISUALSTYLE
  5
42
102
{ACAD_REACTORS
330
2A
102
}
102
{ACAD_XDICTIONARY
360
C3
102
}
330
2A
100
AcDbVisualStyle
  2
Shaded
 70
    27
 71
     2
 72
     2
 73
     1
 90
        2
 40
0.6
 41
30.0
 62
     5
 63
     7
421
 16777215
 74
     0
 91
        4
 64
     7
 65
   257
 75
     1
175
     1
 42
1.0
 92
        8
 66
   257
 43
1.0
 76
     1
 77
     6
 78
     2
 67
     8
425
  7895160
 79
     3
170
     0
171
     0
290
     0
174
     0
 93
        5
 44
0.0
173
     0
291
     0
 45
0.0
  0
VISUALSTYLE
  5
41
102
{ACAD_REACTORS
330
2A
102
}
102
{ACAD_XDICTIONARY
360
C1
102
}
330
2A
100
AcDbVisualStyle
  2
Shaded with edges
 70
    26
 71
     2
 72
     2
 73
     1
 90
        2
 40
0.6
 41
30.0
 62
     5
 63
     7
421
 16777215
 74
     1
 91
       10
 64
     7
 65
   257
 75
     2
175
     1
 42
1.0
 92
        8
 66
   257
 43
1.0
 76
     1
 77
     6
 78
     2
 67
     7
 79
     3
170
     0
171
     0
290
     0
174
     0
 93
        5
 44
0.0
173
     0
291
     0
 45
0.0
  0
VISUALSTYLE
  5
3E
102
{ACAD_REACTORS
330
2A
102
}
102
{ACAD_XDICTIONARY
360
BB
102
}
330
2A
100
AcDbVisualStyle
  2
Shades of Gray
 70
    23
 71
     2
 72
     2
 73
     3
 90
        0
 40
0.6
 41
30.0
 62
     5
 63
     7
421
 16777215
 74
     2
 91
        2
 64
     7
 65
     7
 75
     1
175
     1
 42
40.0
 92
        8
 66
     7
 43
1.0
 76
     1
 77
     6
 78
     2
 67
     7
 79
     3
170
     0
171
     0
290
     0
174
     0
 93
        1
 44
0.0
173
     0
291
     0
 45
0.0
  0
VISUALSTYLE
  5
3F
102
{ACAD_REACTORS
330
2A
102
}
102
{ACAD_XDICTIONARY
360
BD
102
}
330
2A
100
AcDbVisualStyle
  2
Sketchy
 70
    24
 71
     1
 72
     2
 73
     2
 90
        0
 40
0.6
 41
30.0
 62
     5
 63
     7
421
 16777215
 74
     2
 91
        2
 64
     7
 65
     7
 75
     1
175
     1
 42
40.0
 92
       11
 66
     7
 43
1.0
 76
     1
 77
     6
 78
     2
 67
     7
 79
     6
170
     0
171
     0
290
     0
174
     0
 93
        1
 44
0.0
173
     0
291
     0
 45
0.0
  0
VISUALSTYLE
  5
37
102
{ACAD_REACTORS
330
2A
102
}
102
{ACAD_XDICTIONARY
360
AD
102
}
330
2A
100
AcDbVisualStyle
  2
Thicken
 70
    13
 71
     2
 72
     2
 73
     0
 90
        0
 40
0.6
 41
30.0
 62
     5
 63
     7
421
 16777215
 74
     1
 91
        4
 64
     7
 65
   257
 75
     1
175
     1
 42
1.0
 92
       12
 66
     7
 43
1.0
 76
     1
 77
     6
 78
     2
 67
     7
 79
     5
170
     0
171
     0
290
     0
174
     0
 93
        1
 44
0.0
173
     0
291
     1
 45
0.0
  0
VISUALSTYLE
  5
30
102
{ACAD_REACTORS
330
2A
102
}
102
{ACAD_XDICTIONARY
360
9F
102
}
330
2A
100
AcDbVisualStyle
  2
Wireframe
 70
     5
 71
     0
 72
     2
 73
     0
 90
        0
 40
0.6
 41
30.0
 62
     5
 63
     7
421
 16777215
 74
     1
 91
        4
 64
     7
 65
   257
 75
     1
175
     1
 42
1.0
 92
        0
 66
   257
 43
1.0
 76
     1
 77
     6
 78
     2
 67
     7
 79
     3
170
     0
171
     0
290
     0
174
     0
 93
        1
 44
0.0
173
     0
291
     0
 45
0.0
  0
VISUALSTYLE
  5
40
102
{ACAD_REACTORS
330
2A
102
}
102
{ACAD_XDICTIONARY
360
BF
102
}
330
2A
100
AcDbVisualStyle
  2
X-Ray
 70
    25
 71
     2
 72
     2
 73
     1
 90
        1
 40
0.5
 41
30.0
 62
     5
 63
     7
421
 16777215
 74
     1
 91
        0
 64
     7
 65
   257
 75
     1
175
     1
 42
1.0
 92
        8
 66
     7
 43
1.0
 76
     1
 77
     6
 78
     2
 67
     7
 79
     3
170
     0
171
     0
290
     0
174
     0
 93
       13
 44
0.0
173
     0
291
     0
 45
0.0
  0
DICTIONARYVAR
  5
93
102
{ACAD_REACTORS
330
92
102
}
330
92
100
DictionaryVariables
280
     0
  1
1:1
  0
DICTIONARYVAR
  5
CC
102
{ACAD_REACTORS
330
92
102
}
330
92
100
DictionaryVariables
280
     0
  1
Standard
  0
DICTIONARYVAR
  5
CB
102
{ACAD_REACTORS
330
92
102
}
330
92
100
DictionaryVariables
280
     0
  1
Standard
  0
DICTIONARYVAR
  5
94
102
{ACAD_REACTORS
330
92
102
}
330
92
100
DictionaryVariables
280
     0
  1
2
  0
DICTIONARY
  5
C8
330
5C
100
AcDbDictionary
280
     1
281
     1
  3
ACAD_XREC_ROUNDTRIP
360
C9
  0
DICTIONARY
  5
C5
330
5A
100
AcDbDictionary
280
     1
281
     1
  3
ACAD_ROUNDTRIP_2008_TABLESTYLE_CELLSTYLEMAP
360
C6
  0
DICTIONARY
  5
9D
330
2F
100
AcDbDictionary
280
     1
281
     1
  3
ACAD_XREC_ROUNDTRIP
360
9E
  0
DICTIONARY
  5
A3
330
32
100
AcDbDictionary
280
     1
281
     1
  3
ACAD_XREC_ROUNDTRIP
360
A4
  0
DICTIONARY
  5
AB
330
36
100
AcDbDictionary
280
     1
281
     1
  3
ACAD_XREC_ROUNDTRIP
360
AC
  0
DICTIONARY
  5
B3
330
3A
100
AcDbDictionary
280
     1
281
     1
  3
ACAD_XREC_ROUNDTRIP
360
B4
  0
DICTIONARY
  5
A7
330
34
100
AcDbDictionary
280
     1
281
     1
  3
ACAD_XREC_ROUNDTRIP
360
A8
  0
DICTIONARY
  5
A9
330
35
100
AcDbDictionary
280
     1
281
     1
  3
ACAD_XREC_ROUNDTRIP
360
AA
  0
DICTIONARY
  5
B9
330
3D
100
AcDbDictionary
280
     1
281
     1
  3
ACAD_XREC_ROUNDTRIP
360
BA
  0
DICTIONARY
  5
B1
330
39
100
AcDbDictionary
280
     1
281
     1
  3
ACAD_XREC_ROUNDTRIP
360
B2
  0
DICTIONARY
  5
95
330
2B
100
AcDbDictionary
280
     1
281
     1
  3
ACAD_XREC_ROUNDTRIP
360
96
  0
DICTIONARY
  5
97
330
2C
100
AcDbDictionary
280
     1
281
     1
  3
ACAD_XREC_ROUNDTRIP
360
98
  0
DICTIONARY
  5
99
330
2D
100
AcDbDictionary
280
     1
281
     1
  3
ACAD_XREC_ROUNDTRIP
360
9A
  0
DICTIONARY
  5
9B
330
2E
100
AcDbDictionary
280
     1
281
     1
  3
ACAD_XREC_ROUNDTRIP
360
9C
  0
DICTIONARY
  5
A1
330
31
100
AcDbDictionary
280
     1
281
     1
  3
ACAD_XREC_ROUNDTRIP
360
A2
  0
DICTIONARY
  5
B5
330
3B
100
AcDbDictionary
280
     1
281
     1
  3
ACAD_XREC_ROUNDTRIP
360
B6
  0
DICTIONARY
  5
AF
330
38
100
AcDbDictionary
280
     1
281
     1
  3
ACAD_XREC_ROUNDTRIP
360
B0
  0
DICTIONARY
  5
B7
330
3C
100
AcDbDictionary
280
     1
281
     1
  3
ACAD_XREC_ROUNDTRIP
360
B8
  0
DICTIONARY
  5
A5
330
33
100
AcDbDictionary
280
     1
281
     1
  3
ACAD_XREC_ROUNDTRIP
360
A6
  0
DICTIONARY
  5
C3
330
42
100
AcDbDictionary
280
     1
281
     1
  3
ACAD_XREC_ROUNDTRIP
360
C4
  0
DICTIONARY
  5
C1
330
41
100
AcDbDictionary
280
     1
281
     1
  3
ACAD_XREC_ROUNDTRIP
360
C2
  0
DICTIONARY
  5
BB
330
3E
100
AcDbDictionary
280
     1
281
     1
  3
ACAD_XREC_ROUNDTRIP
360
BC
  0
DICTIONARY
  5
BD
330
3F
100
AcDbDictionary
280
     1
281
     1
  3
ACAD_XREC_ROUNDTRIP
360
BE
  0
DICTIONARY
  5
AD
330
37
100
AcDbDictionary
280
     1
281
     1
  3
ACAD_XREC_ROUNDTRIP
360
AE
  0
DICTIONARY
  5
9F
330
30
100
AcDbDictionary
280
     1
281
     1
  3
ACAD_XREC_ROUNDTRIP
360
A0
  0
DICTIONARY
  5
BF
330
40
100
AcDbDictionary
280
     1
281
     1
  3
ACAD_XREC_ROUNDTRIP
360
C0
  0
XRECORD
  5
C9
102
{ACAD_REACTORS
330
C8
102
}
330
C8
100
AcDbXrecord
280
     1
102
ACAD_ROUNDTRIP_2010_MLEADER_STYLE
  0
CELLSTYLEMAP
  5
C6
102
{ACAD_REACTORS
330
C5
102
}
330
C5
100
AcDbCellStyleMap
 90
        3
300
CELLSTYLE
  1
TABLEFORMAT_BEGIN
 90
        5
170
     1
 91
        0
 92
    32768
 62
   257
 93
        1
300
CONTENTFORMAT
  1
CONTENTFORMAT_BEGIN
 90
        0
 91
        0
 92
        4
 93
        0
300

 40
0.0
140
1.0
 94
        5
 62
     0
340
11
144
0.25
309
CONTENTFORMAT_END
171
     1
301
MARGIN
  1
CELLMARGIN_BEGIN
 40
0.06
 40
0.06
 40
0.06
 40
0.06
 40
0.06
 40
0.06
309
CELLMARGIN_END
 94
        6
 95
        1
302
GRIDFORMAT
  1
GRIDFORMAT_BEGIN
 90
        0
 91
        1
 62
     0
 92
       -2
340
14
 93
        0
 40
0.045
309
GRIDFORMAT_END
 95
        2
302
GRIDFORMAT
  1
GRIDFORMAT_BEGIN
 90
        0
 91
        1
 62
     0
 92
       -2
340
14
 93
        0
 40
0.045
309
GRIDFORMAT_END
 95
        4
302
GRIDFORMAT
  1
GRIDFORMAT_BEGIN
 90
        0
 91
        1
 62
     0
 92
       -2
340
14
 93
        0
 40
0.045
309
GRIDFORMAT_END
 95
        8
302
GRIDFORMAT
  1
GRIDFORMAT_BEGIN
 90
        0
 91
        1
 62
     0
 92
       -2
340
14
 93
        0
 40
0.045
309
GRIDFORMAT_END
 95
       16
302
GRIDFORMAT
  1
GRIDFORMAT_BEGIN
 90
        0
 91
        1
 62
     0
 92
       -2
340
14
 93
        0
 40
0.045
309
GRIDFORMAT_END
 95
       32
302
GRIDFORMAT
  1
GRIDFORMAT_BEGIN
 90
        0
 91
        1
 62
     0
 92
       -2
340
14
 93
        0
 40
0.045
309
GRIDFORMAT_END
309
TABLEFORMAT_END
  1
CELLSTYLE_BEGIN
 90
        1
 91
        1
300
_TITLE
309
CELLSTYLE_END
300
CELLSTYLE
  1
TABLEFORMAT_BEGIN
 90
        5
170
     1
 91
        0
 92
        0
 62
   257
 93
        1
300
CONTENTFORMAT
  1
CONTENTFORMAT_BEGIN
 90
        0
 91
        0
 92
        4
 93
        0
300

 40
0.0
140
1.0
 94
        5
 62
     0
340
11
144
0.18
309
CONTENTFORMAT_END
171
     1
301
MARGIN
  1
CELLMARGIN_BEGIN
 40
0.06
 40
0.06
 40
0.06
 40
0.06
 40
0.06
 40
0.06
309
CELLMARGIN_END
 94
        6
 95
        1
302
GRIDFORMAT
  1
GRIDFORMAT_BEGIN
 90
        0
 91
        1
 62
     0
 92
       -2
340
14
 93
        0
 40
0.045
309
GRIDFORMAT_END
 95
        2
302
GRIDFORMAT
  1
GRIDFORMAT_BEGIN
 90
        0
 91
        1
 62
     0
 92
       -2
340
14
 93
        0
 40
0.045
309
GRIDFORMAT_END
 95
        4
302
GRIDFORMAT
  1
GRIDFORMAT_BEGIN
 90
        0
 91
        1
 62
     0
 92
       -2
340
14
 93
        0
 40
0.045
309
GRIDFORMAT_END
 95
        8
302
GRIDFORMAT
  1
GRIDFORMAT_BEGIN
 90
        0
 91
        1
 62
     0
 92
       -2
340
14
 93
        0
 40
0.045
309
GRIDFORMAT_END
 95
       16
302
GRIDFORMAT
  1
GRIDFORMAT_BEGIN
 90
        0
 91
        1
 62
     0
 92
       -2
340
14
 93
        0
 40
0.045
309
GRIDFORMAT_END
 95
       32
302
GRIDFORMAT
  1
GRIDFORMAT_BEGIN
 90
        0
 91
        1
 62
     0
 92
       -2
340
14
 93
        0
 40
0.045
309
GRIDFORMAT_END
309
TABLEFORMAT_END
  1
CELLSTYLE_BEGIN
 90
        2
 91
        1
300
_HEADER
309
CELLSTYLE_END
300
CELLSTYLE
  1
TABLEFORMAT_BEGIN
 90
        5
170
     1
 91
        0
 92
        0
 62
   257
 93
        1
300
CONTENTFORMAT
  1
CONTENTFORMAT_BEGIN
 90
        0
 91
        0
 92
        4
 93
        0
300

 40
0.0
140
1.0
 94
        2
 62
     0
340
11
144
0.18
309
CONTENTFORMAT_END
171
     1
301
MARGIN
  1
CELLMARGIN_BEGIN
 40
0.06
 40
0.06
 40
0.06
 40
0.06
 40
0.06
 40
0.06
309
CELLMARGIN_END
 94
        6
 95
        1
302
GRIDFORMAT
  1
GRIDFORMAT_BEGIN
 90
        0
 91
        1
 62
     0
 92
       -2
340
14
 93
        0
 40
0.045
309
GRIDFORMAT_END
 95
        2
302
GRIDFORMAT
  1
GRIDFORMAT_BEGIN
 90
        0
 91
        1
 62
     0
 92
       -2
340
14
 93
        0
 40
0.045
309
GRIDFORMAT_END
 95
        4
302
GRIDFORMAT
  1
GRIDFORMAT_BEGIN
 90
        0
 91
        1
 62
     0
 92
       -2
340
14
 93
        0
 40
0.045
309
GRIDFORMAT_END
 95
        8
302
GRIDFORMAT
  1
GRIDFORMAT_BEGIN
 90
        0
 91
        1
 62
     0
 92
       -2
340
14
 93
        0
 40
0.045
309
GRIDFORMAT_END
 95
       16
302
GRIDFORMAT
  1
GRIDFORMAT_BEGIN
 90
        0
 91
        1
 62
     0
 92
       -2
340
14
 93
        0
 40
0.045
309
GRIDFORMAT_END
 95
       32
302
GRIDFORMAT
  1
GRIDFORMAT_BEGIN
 90
        0
 91
        1
 62
     0
 92
       -2
340
14
 93
        0
 40
0.045
309
GRIDFORMAT_END
309
TABLEFORMAT_END
  1
CELLSTYLE_BEGIN
 90
        3
 91
        2
300
_DATA
309
CELLSTYLE_END
  0
XRECORD
  5
9E
102
{ACAD_REACTORS
330
9D
102
}
330
9D
100
AcDbXrecord
280
     1
102
RTVSPropertyOp0
 70
     1
102
RTVSPropertyOp1
 70
     1
102
RTVSPropertyOp2
 70
     1
102
RTVSPropertyOp3
 70
     1
102
RTVSPropertyOp4
 70
     1
102
RTVSPropertyOp5
 70
     1
102
RTVSPropertyOp6
 70
     1
102
RTVSPropertyOp7
 70
     1
102
RTVSPropertyOp8
 70
     1
102
RTVSPropertyOp9
 70
     1
102
RTVSPropertyOp10
 70
     1
102
RTVSPropertyOp11
 70
     1
102
RTVSPropertyOp12
 70
     1
102
RTVSPropertyOp13
 70
     1
102
RTVSPropertyOp14
 70
     1
102
RTVSPropertyOp15
 70
     1
102
RTVSPropertyOp16
 70
     1
102
RTVSPropertyOp17
 70
     1
102
RTVSPropertyOp18
 70
     1
102
RTVSPropertyOp19
 70
     1
102
RTVSPropertyOp20
 70
     1
102
RTVSPropertyOp21
 70
     1
102
RTVSPropertyOp22
 70
     1
102
RTVSPropertyOp23
 70
     1
102
RTVSPropertyOp24
 70
     1
102
RTVSPropertyOp25
 70
     1
102
RTVSPropertyOp26
 70
     1
102
RTVSPropertyOp27
 70
     1
102
RTVSPropertyOp28
 70
     1
102
RTVSPropertyOp29
 70
     1
102
RTVSPropertyOp30
 70
     1
102
RTVSPropertyOp31
 70
     1
102
RTVSPropertyOp32
 70
     1
102
RTVSPropertyOp33
 70
     1
102
RTVSPropertyOp34
 70
     1
102
RTVSPropertyOp35
 70
     1
102
RTVSPropertyOp36
 70
     1
102
RTVSPropertyOp37
 70
     1
102
RTVSPropertyOp38
 70
     1
102
RTVSPropertyOp39
 70
     1
102
RTVSPropertyOp40
 70
     1
102
RTVSPropertyOp41
 70
     1
102
RTVSPropertyOp42
 70
     1
102
RTVSPropertyOp43
 70
     1
102
RTVSPropertyOp44
 70
     1
102
RTVSPropertyOp45
 70
     1
102
RTVSPropertyOp46
 70
     1
102
RTVSPropertyOp47
 70
     1
102
RTVSPropertyOp48
 70
     1
102
RTVSPropertyOp49
 70
     1
102
RTVSPropertyOp50
 70
     1
102
RTVSPropertyOp51
 70
     0
102
RTVSPropertyOp52
 70
     0
102
RTVSPropertyOp53
 70
     1
102
RTVSPropertyOp54
 70
     1
102
RTVSPropertyOp55
 70
     1
102
RTVSPropertyOp56
 70
     1
102
RTVSPropertyOp57
 70
     1
102
RTVSPost2010Prop28
280
     1
102
RTVSPost2010PropOp28
 70
     1
102
RTVSPost2010Prop29
280
     1
102
RTVSPost2010PropOp29
 70
     1
102
RTVSPost2010Prop30
280
     0
102
RTVSPost2010PropOp30
 70
     1
102
RTVSPost2010Prop31
280
     0
102
RTVSPost2010PropOp31
 70
     1
102
RTVSPost2010Prop32
280
     0
102
RTVSPost2010PropOp32
 70
     1
102
RTVSPost2010Prop33
280
     0
102
RTVSPost2010PropOp33
 70
     1
102
RTVSPost2010Prop34
280
     0
102
RTVSPost2010PropOp34
 70
     1
102
RTVSPost2010Prop35
280
     0
102
RTVSPost2010PropOp35
 70
     1
102
RTVSPost2010Prop36
280
     0
102
RTVSPost2010PropOp36
 70
     1
102
RTVSPost2010Prop37
 90
       50
102
RTVSPost2010PropOp37
 70
     1
102
RTVSPost2010Prop38
140
0.0
102
RTVSPost2010PropOp38
 70
     1
102
RTVSPost2010Prop39
140
1.0
102
RTVSPost2010PropOp39
 70
     1
102
RTVSPost2010Prop40
 90
        0
102
RTVSPost2010PropOp40
 70
     1
102
RTVSPost2010Prop41ColorIndex
 90
       18
102
RTVSPost2010Prop41ColorRGB
 90
        0
102
RTVSPost2010PropOp41
 70
     1
102
RTVSPost2010Prop42
 90
       50
102
RTVSPost2010PropOp42
 70
     1
102
RTVSPost2010Prop43
 90
        3
102
RTVSPost2010PropOp43
 70
     1
102
RTVSPost2010Prop44ColorIndex
 90
        5
102
RTVSPost2010Prop44ColorRGB
 90
      255
102
RTVSPost2010PropOp44
 70
     1
102
RTVSPost2010Prop45
280
     0
102
RTVSPost2010PropOp45
 70
     1
102
RTVSPost2010Prop46
 90
       50
102
RTVSPost2010PropOp46
 70
     1
102
RTVSPost2010Prop47
 90
       50
102
RTVSPost2010PropOp47
 70
     1
102
RTVSPost2010Prop48
 90
       50
102
RTVSPost2010PropOp48
 70
     1
102
RTVSPost2010Prop49
280
     0
102
RTVSPost2010PropOp49
 70
     1
102
RTVSPost2010Prop50
 90
       50
102
RTVSPost2010PropOp50
 70
     1
102
RTVSPost2010Prop51ColorIndex
 90
      256
102
RTVSPost2010Prop51ColorRGB
 90
-16777216
102
RTVSPost2010PropOp51
 70
     0
102
RTVSPost2010Prop52
140
1.0
102
RTVSPost2010PropOp52
 70
     0
102
RTVSPost2010Prop53
 90
        2
102
RTVSPost2010PropOp53
 70
     1
102
RTVSPost2010Prop54
  1
strokes_ogs.tif
102
RTVSPost2010PropOp54
 70
     1
102
RTVSPost2010Prop55
280
     0
102
RTVSPost2010PropOp55
 70
     1
102
RTVSPost2010Prop56
140
1.0
102
RTVSPost2010PropOp56
 70
     1
102
RTVSPost2010Prop57
140
1.0
102
RTVSPost2010PropOp57
 70
     1
  0
XRECORD
  5
A4
102
{ACAD_REACTORS
330
A3
102
}
330
A3
100
AcDbXrecord
280
     1
102
RTVSPropertyOp0
 70
     1
102
RTVSPropertyOp1
 70
     1
102
RTVSPropertyOp2
 70
     1
102
RTVSPropertyOp3
 70
     1
102
RTVSPropertyOp4
 70
     1
102
RTVSPropertyOp5
 70
     1
102
RTVSPropertyOp6
 70
     1
102
RTVSPropertyOp7
 70
     1
102
RTVSPropertyOp8
 70
     1
102
RTVSPropertyOp9
 70
     1
102
RTVSPropertyOp10
 70
     1
102
RTVSPropertyOp11
 70
     1
102
RTVSPropertyOp12
 70
     1
102
RTVSPropertyOp13
 70
     1
102
RTVSPropertyOp14
 70
     1
102
RTVSPropertyOp15
 70
     1
102
RTVSPropertyOp16
 70
     1
102
RTVSPropertyOp17
 70
     1
102
RTVSPropertyOp18
 70
     1
102
RTVSPropertyOp19
 70
     1
102
RTVSPropertyOp20
 70
     1
102
RTVSPropertyOp21
 70
     1
102
RTVSPropertyOp22
 70
     1
102
RTVSPropertyOp23
 70
     1
102
RTVSPropertyOp24
 70
     1
102
RTVSPropertyOp25
 70
     1
102
RTVSPropertyOp26
 70
     1
102
RTVSPropertyOp27
 70
     1
102
RTVSPropertyOp28
 70
     1
102
RTVSPropertyOp29
 70
     1
102
RTVSPropertyOp30
 70
     1
102
RTVSPropertyOp31
 70
     1
102
RTVSPropertyOp32
 70
     1
102
RTVSPropertyOp33
 70
     1
102
RTVSPropertyOp34
 70
     1
102
RTVSPropertyOp35
 70
     1
102
RTVSPropertyOp36
 70
     1
102
RTVSPropertyOp37
 70
     1
102
RTVSPropertyOp38
 70
     1
102
RTVSPropertyOp39
 70
     1
102
RTVSPropertyOp40
 70
     1
102
RTVSPropertyOp41
 70
     1
102
RTVSPropertyOp42
 70
     1
102
RTVSPropertyOp43
 70
     1
102
RTVSPropertyOp44
 70
     1
102
RTVSPropertyOp45
 70
     1
102
RTVSPropertyOp46
 70
     1
102
RTVSPropertyOp47
 70
     1
102
RTVSPropertyOp48
 70
     1
102
RTVSPropertyOp49
 70
     1
102
RTVSPropertyOp50
 70
     1
102
RTVSPropertyOp51
 70
     0
102
RTVSPropertyOp52
 70
     0
102
RTVSPropertyOp53
 70
     1
102
RTVSPropertyOp54
 70
     1
102
RTVSPropertyOp55
 70
     1
102
RTVSPropertyOp56
 70
     1
102
RTVSPropertyOp57
 70
     1
102
RTVSPost2010Prop28
280
     0
102
RTVSPost2010PropOp28
 70
     1
102
RTVSPost2010Prop29
280
     1
102
RTVSPost2010PropOp29
 70
     1
102
RTVSPost2010Prop30
280
     1
102
RTVSPost2010PropOp30
 70
     1
102
RTVSPost2010Prop31
280
     0
102
RTVSPost2010PropOp31
 70
     1
102
RTVSPost2010Prop32
280
     0
102
RTVSPost2010PropOp32
 70
     1
102
RTVSPost2010Prop33
280
     0
102
RTVSPost2010PropOp33
 70
     1
102
RTVSPost2010Prop34
280
     0
102
RTVSPost2010PropOp34
 70
     1
102
RTVSPost2010Prop35
280
     0
102
RTVSPost2010PropOp35
 70
     1
102
RTVSPost2010Prop36
280
     0
102
RTVSPost2010PropOp36
 70
     1
102
RTVSPost2010Prop37
 90
       50
102
RTVSPost2010PropOp37
 70
     1
102
RTVSPost2010Prop38
140
0.0
102
RTVSPost2010PropOp38
 70
     1
102
RTVSPost2010Prop39
140
1.0
102
RTVSPost2010PropOp39
 70
     1
102
RTVSPost2010Prop40
 90
        0
102
RTVSPost2010PropOp40
 70
     1
102
RTVSPost2010Prop41ColorIndex
 90
       18
102
RTVSPost2010Prop41ColorRGB
 90
        0
102
RTVSPost2010PropOp41
 70
     1
102
RTVSPost2010Prop42
 90
       50
102
RTVSPost2010PropOp42
 70
     1
102
RTVSPost2010Prop43
 90
        3
102
RTVSPost2010PropOp43
 70
     1
102
RTVSPost2010Prop44ColorIndex
 90
        5
102
RTVSPost2010Prop44ColorRGB
 90
      255
102
RTVSPost2010PropOp44
 70
     1
102
RTVSPost2010Prop45
280
     0
102
RTVSPost2010PropOp45
 70
     1
102
RTVSPost2010Prop46
 90
       50
102
RTVSPost2010PropOp46
 70
     1
102
RTVSPost2010Prop47
 90
       50
102
RTVSPost2010PropOp47
 70
     1
102
RTVSPost2010Prop48
 90
       50
102
RTVSPost2010PropOp48
 70
     1
102
RTVSPost2010Prop49
280
     0
102
RTVSPost2010PropOp49
 70
     1
102
RTVSPost2010Prop50
 90
       50
102
RTVSPost2010PropOp50
 70
     1
102
RTVSPost2010Prop51ColorIndex
 90
      256
102
RTVSPost2010Prop51ColorRGB
 90
-16777216
102
RTVSPost2010PropOp51
 70
     0
102
RTVSPost2010Prop52
140
1.0
102
RTVSPost2010PropOp52
 70
     0
102
RTVSPost2010Prop53
 90
        2
102
RTVSPost2010PropOp53
 70
     1
102
RTVSPost2010Prop54
  1
strokes_ogs.tif
102
RTVSPost2010PropOp54
 70
     1
102
RTVSPost2010Prop55
280
     0
102
RTVSPost2010PropOp55
 70
     1
102
RTVSPost2010Prop56
140
1.0
102
RTVSPost2010PropOp56
 70
     1
102
RTVSPost2010Prop57
140
1.0
102
RTVSPost2010PropOp57
 70
     1
  0
XRECORD
  5
AC
102
{ACAD_REACTORS
330
AB
102
}
330
AB
100
AcDbXrecord
280
     1
102
RTVSPropertyOp0
 70
     1
102
RTVSPropertyOp1
 70
     1
102
RTVSPropertyOp2
 70
     1
102
RTVSPropertyOp3
 70
     1
102
RTVSPropertyOp4
 70
     1
102
RTVSPropertyOp5
 70
     1
102
RTVSPropertyOp6
 70
     1
102
RTVSPropertyOp7
 70
     1
102
RTVSPropertyOp8
 70
     1
102
RTVSPropertyOp9
 70
     1
102
RTVSPropertyOp10
 70
     1
102
RTVSPropertyOp11
 70
     1
102
RTVSPropertyOp12
 70
     1
102
RTVSPropertyOp13
 70
     1
102
RTVSPropertyOp14
 70
     1
102
RTVSPropertyOp15
 70
     1
102
RTVSPropertyOp16
 70
     1
102
RTVSPropertyOp17
 70
     1
102
RTVSPropertyOp18
 70
     1
102
RTVSPropertyOp19
 70
     1
102
RTVSPropertyOp20
 70
     1
102
RTVSPropertyOp21
 70
     1
102
RTVSPropertyOp22
 70
     1
102
RTVSPropertyOp23
 70
     1
102
RTVSPropertyOp24
 70
     1
102
RTVSPropertyOp25
 70
     1
102
RTVSPropertyOp26
 70
     1
102
RTVSPropertyOp27
 70
     1
102
RTVSPropertyOp28
 70
     1
102
RTVSPropertyOp29
 70
     1
102
RTVSPropertyOp30
 70
     1
102
RTVSPropertyOp31
 70
     1
102
RTVSPropertyOp32
 70
     1
102
RTVSPropertyOp33
 70
     1
102
RTVSPropertyOp34
 70
     1
102
RTVSPropertyOp35
 70
     1
102
RTVSPropertyOp36
 70
     1
102
RTVSPropertyOp37
 70
     1
102
RTVSPropertyOp38
 70
     1
102
RTVSPropertyOp39
 70
     1
102
RTVSPropertyOp40
 70
     1
102
RTVSPropertyOp41
 70
     1
102
RTVSPropertyOp42
 70
     1
102
RTVSPropertyOp43
 70
     1
102
RTVSPropertyOp44
 70
     1
102
RTVSPropertyOp45
 70
     1
102
RTVSPropertyOp46
 70
     1
102
RTVSPropertyOp47
 70
     1
102
RTVSPropertyOp48
 70
     1
102
RTVSPropertyOp49
 70
     1
102
RTVSPropertyOp50
 70
     1
102
RTVSPropertyOp51
 70
     0
102
RTVSPropertyOp52
 70
     0
102
RTVSPropertyOp53
 70
     1
102
RTVSPropertyOp54
 70
     1
102
RTVSPropertyOp55
 70
     1
102
RTVSPropertyOp56
 70
     1
102
RTVSPropertyOp57
 70
     1
102
RTVSPost2010Prop28
280
     0
102
RTVSPost2010PropOp28
 70
     1
102
RTVSPost2010Prop29
280
     1
102
RTVSPost2010PropOp29
 70
     1
102
RTVSPost2010Prop30
280
     1
102
RTVSPost2010PropOp30
 70
     1
102
RTVSPost2010Prop31
280
     0
102
RTVSPost2010PropOp31
 70
     1
102
RTVSPost2010Prop32
280
     0
102
RTVSPost2010PropOp32
 70
     1
102
RTVSPost2010Prop33
280
     0
102
RTVSPost2010PropOp33
 70
     1
102
RTVSPost2010Prop34
280
     0
102
RTVSPost2010PropOp34
 70
     1
102
RTVSPost2010Prop35
280
     0
102
RTVSPost2010PropOp35
 70
     1
102
RTVSPost2010Prop36
280
     0
102
RTVSPost2010PropOp36
 70
     1
102
RTVSPost2010Prop37
 90
       50
102
RTVSPost2010PropOp37
 70
     1
102
RTVSPost2010Prop38
140
0.0
102
RTVSPost2010PropOp38
 70
     1
102
RTVSPost2010Prop39
140
1.0
102
RTVSPost2010PropOp39
 70
     1
102
RTVSPost2010Prop40
 90
        0
102
RTVSPost2010PropOp40
 70
     1
102
RTVSPost2010Prop41ColorIndex
 90
       18
102
RTVSPost2010Prop41ColorRGB
 90
        0
102
RTVSPost2010PropOp41
 70
     1
102
RTVSPost2010Prop42
 90
       50
102
RTVSPost2010PropOp42
 70
     1
102
RTVSPost2010Prop43
 90
        3
102
RTVSPost2010PropOp43
 70
     1
102
RTVSPost2010Prop44ColorIndex
 90
        5
102
RTVSPost2010Prop44ColorRGB
 90
      255
102
RTVSPost2010PropOp44
 70
     1
102
RTVSPost2010Prop45
280
     0
102
RTVSPost2010PropOp45
 70
     1
102
RTVSPost2010Prop46
 90
       50
102
RTVSPost2010PropOp46
 70
     1
102
RTVSPost2010Prop47
 90
       50
102
RTVSPost2010PropOp47
 70
     1
102
RTVSPost2010Prop48
 90
       50
102
RTVSPost2010PropOp48
 70
     1
102
RTVSPost2010Prop49
280
     0
102
RTVSPost2010PropOp49
 70
     1
102
RTVSPost2010Prop50
 90
       50
102
RTVSPost2010PropOp50
 70
     1
102
RTVSPost2010Prop51ColorIndex
 90
      256
102
RTVSPost2010Prop51ColorRGB
 90
-16777216
102
RTVSPost2010PropOp51
 70
     0
102
RTVSPost2010Prop52
140
1.0
102
RTVSPost2010PropOp52
 70
     0
102
RTVSPost2010Prop53
 90
        2
102
RTVSPost2010PropOp53
 70
     1
102
RTVSPost2010Prop54
  1
strokes_ogs.tif
102
RTVSPost2010PropOp54
 70
     1
102
RTVSPost2010Prop55
280
     0
102
RTVSPost2010PropOp55
 70
     1
102
RTVSPost2010Prop56
140
1.0
102
RTVSPost2010PropOp56
 70
     1
102
RTVSPost2010Prop57
140
1.0
102
RTVSPost2010PropOp57
 70
     1
  0
XRECORD
  5
B4
102
{ACAD_REACTORS
330
B3
102
}
330
B3
100
AcDbXrecord
280
     1
102
RTVSPropertyOp0
 70
     1
102
RTVSPropertyOp1
 70
     1
102
RTVSPropertyOp2
 70
     1
102
RTVSPropertyOp3
 70
     1
102
RTVSPropertyOp4
 70
     1
102
RTVSPropertyOp5
 70
     1
102
RTVSPropertyOp6
 70
     1
102
RTVSPropertyOp7
 70
     1
102
RTVSPropertyOp8
 70
     1
102
RTVSPropertyOp9
 70
     1
102
RTVSPropertyOp10
 70
     1
102
RTVSPropertyOp11
 70
     1
102
RTVSPropertyOp12
 70
     1
102
RTVSPropertyOp13
 70
     1
102
RTVSPropertyOp14
 70
     1
102
RTVSPropertyOp15
 70
     1
102
RTVSPropertyOp16
 70
     1
102
RTVSPropertyOp17
 70
     1
102
RTVSPropertyOp18
 70
     1
102
RTVSPropertyOp19
 70
     1
102
RTVSPropertyOp20
 70
     1
102
RTVSPropertyOp21
 70
     1
102
RTVSPropertyOp22
 70
     1
102
RTVSPropertyOp23
 70
     1
102
RTVSPropertyOp24
 70
     1
102
RTVSPropertyOp25
 70
     1
102
RTVSPropertyOp26
 70
     1
102
RTVSPropertyOp27
 70
     1
102
RTVSPropertyOp28
 70
     1
102
RTVSPropertyOp29
 70
     1
102
RTVSPropertyOp30
 70
     1
102
RTVSPropertyOp31
 70
     1
102
RTVSPropertyOp32
 70
     1
102
RTVSPropertyOp33
 70
     1
102
RTVSPropertyOp34
 70
     1
102
RTVSPropertyOp35
 70
     1
102
RTVSPropertyOp36
 70
     1
102
RTVSPropertyOp37
 70
     1
102
RTVSPropertyOp38
 70
     1
102
RTVSPropertyOp39
 70
     1
102
RTVSPropertyOp40
 70
     1
102
RTVSPropertyOp41
 70
     1
102
RTVSPropertyOp42
 70
     1
102
RTVSPropertyOp43
 70
     1
102
RTVSPropertyOp44
 70
     1
102
RTVSPropertyOp45
 70
     1
102
RTVSPropertyOp46
 70
     1
102
RTVSPropertyOp47
 70
     1
102
RTVSPropertyOp48
 70
     1
102
RTVSPropertyOp49
 70
     1
102
RTVSPropertyOp50
 70
     1
102
RTVSPropertyOp51
 70
     0
102
RTVSPropertyOp52
 70
     0
102
RTVSPropertyOp53
 70
     1
102
RTVSPropertyOp54
 70
     1
102
RTVSPropertyOp55
 70
     1
102
RTVSPropertyOp56
 70
     1
102
RTVSPropertyOp57
 70
     1
102
RTVSPost2010Prop28
280
     0
102
RTVSPost2010PropOp28
 70
     1
102
RTVSPost2010Prop29
280
     1
102
RTVSPost2010PropOp29
 70
     1
102
RTVSPost2010Prop30
280
     1
102
RTVSPost2010PropOp30
 70
     1
102
RTVSPost2010Prop31
280
     0
102
RTVSPost2010PropOp31
 70
     1
102
RTVSPost2010Prop32
280
     0
102
RTVSPost2010PropOp32
 70
     1
102
RTVSPost2010Prop33
280
     0
102
RTVSPost2010PropOp33
 70
     1
102
RTVSPost2010Prop34
280
     0
102
RTVSPost2010PropOp34
 70
     1
102
RTVSPost2010Prop35
280
     0
102
RTVSPost2010PropOp35
 70
     1
102
RTVSPost2010Prop36
280
     0
102
RTVSPost2010PropOp36
 70
     1
102
RTVSPost2010Prop37
 90
       50
102
RTVSPost2010PropOp37
 70
     1
102
RTVSPost2010Prop38
140
0.0
102
RTVSPost2010PropOp38
 70
     1
102
RTVSPost2010Prop39
140
1.0
102
RTVSPost2010PropOp39
 70
     1
102
RTVSPost2010Prop40
 90
        0
102
RTVSPost2010PropOp40
 70
     1
102
RTVSPost2010Prop41ColorIndex
 90
       18
102
RTVSPost2010Prop41ColorRGB
 90
        0
102
RTVSPost2010PropOp41
 70
     1
102
RTVSPost2010Prop42
 90
       50
102
RTVSPost2010PropOp42
 70
     1
102
RTVSPost2010Prop43
 90
        3
102
RTVSPost2010PropOp43
 70
     1
102
RTVSPost2010Prop44ColorIndex
 90
        5
102
RTVSPost2010Prop44ColorRGB
 90
      255
102
RTVSPost2010PropOp44
 70
     1
102
RTVSPost2010Prop45
280
     0
102
RTVSPost2010PropOp45
 70
     1
102
RTVSPost2010Prop46
 90
       50
102
RTVSPost2010PropOp46
 70
     1
102
RTVSPost2010Prop47
 90
       50
102
RTVSPost2010PropOp47
 70
     1
102
RTVSPost2010Prop48
 90
       50
102
RTVSPost2010PropOp48
 70
     1
102
RTVSPost2010Prop49
280
     0
102
RTVSPost2010PropOp49
 70
     1
102
RTVSPost2010Prop50
 90
       50
102
RTVSPost2010PropOp50
 70
     1
102
RTVSPost2010Prop51ColorIndex
 90
      256
102
RTVSPost2010Prop51ColorRGB
 90
-16777216
102
RTVSPost2010PropOp51
 70
     0
102
RTVSPost2010Prop52
140
1.0
102
RTVSPost2010PropOp52
 70
     0
102
RTVSPost2010Prop53
 90
        2
102
RTVSPost2010PropOp53
 70
     1
102
RTVSPost2010Prop54
  1
strokes_ogs.tif
102
RTVSPost2010PropOp54
 70
     1
102
RTVSPost2010Prop55
280
     0
102
RTVSPost2010PropOp55
 70
     1
102
RTVSPost2010Prop56
140
1.0
102
RTVSPost2010PropOp56
 70
     1
102
RTVSPost2010Prop57
140
1.0
102
RTVSPost2010PropOp57
 70
     1
  0
XRECORD
  5
A8
102
{ACAD_REACTORS
330
A7
102
}
330
A7
100
AcDbXrecord
280
     1
102
RTVSPropertyOp0
 70
     1
102
RTVSPropertyOp1
 70
     1
102
RTVSPropertyOp2
 70
     1
102
RTVSPropertyOp3
 70
     1
102
RTVSPropertyOp4
 70
     1
102
RTVSPropertyOp5
 70
     1
102
RTVSPropertyOp6
 70
     1
102
RTVSPropertyOp7
 70
     1
102
RTVSPropertyOp8
 70
     1
102
RTVSPropertyOp9
 70
     1
102
RTVSPropertyOp10
 70
     1
102
RTVSPropertyOp11
 70
     1
102
RTVSPropertyOp12
 70
     1
102
RTVSPropertyOp13
 70
     1
102
RTVSPropertyOp14
 70
     1
102
RTVSPropertyOp15
 70
     1
102
RTVSPropertyOp16
 70
     1
102
RTVSPropertyOp17
 70
     1
102
RTVSPropertyOp18
 70
     1
102
RTVSPropertyOp19
 70
     1
102
RTVSPropertyOp20
 70
     1
102
RTVSPropertyOp21
 70
     1
102
RTVSPropertyOp22
 70
     1
102
RTVSPropertyOp23
 70
     1
102
RTVSPropertyOp24
 70
     1
102
RTVSPropertyOp25
 70
     1
102
RTVSPropertyOp26
 70
     1
102
RTVSPropertyOp27
 70
     1
102
RTVSPropertyOp28
 70
     1
102
RTVSPropertyOp29
 70
     1
102
RTVSPropertyOp30
 70
     1
102
RTVSPropertyOp31
 70
     1
102
RTVSPropertyOp32
 70
     1
102
RTVSPropertyOp33
 70
     1
102
RTVSPropertyOp34
 70
     1
102
RTVSPropertyOp35
 70
     1
102
RTVSPropertyOp36
 70
     1
102
RTVSPropertyOp37
 70
     1
102
RTVSPropertyOp38
 70
     1
102
RTVSPropertyOp39
 70
     1
102
RTVSPropertyOp40
 70
     1
102
RTVSPropertyOp41
 70
     1
102
RTVSPropertyOp42
 70
     1
102
RTVSPropertyOp43
 70
     1
102
RTVSPropertyOp44
 70
     1
102
RTVSPropertyOp45
 70
     1
102
RTVSPropertyOp46
 70
     1
102
RTVSPropertyOp47
 70
     1
102
RTVSPropertyOp48
 70
     1
102
RTVSPropertyOp49
 70
     1
102
RTVSPropertyOp50
 70
     1
102
RTVSPropertyOp51
 70
     0
102
RTVSPropertyOp52
 70
     0
102
RTVSPropertyOp53
 70
     1
102
RTVSPropertyOp54
 70
     1
102
RTVSPropertyOp55
 70
     1
102
RTVSPropertyOp56
 70
     1
102
RTVSPropertyOp57
 70
     1
102
RTVSPost2010Prop28
280
     0
102
RTVSPost2010PropOp28
 70
     1
102
RTVSPost2010Prop29
280
     1
102
RTVSPost2010PropOp29
 70
     1
102
RTVSPost2010Prop30
280
     1
102
RTVSPost2010PropOp30
 70
     1
102
RTVSPost2010Prop31
280
     0
102
RTVSPost2010PropOp31
 70
     1
102
RTVSPost2010Prop32
280
     0
102
RTVSPost2010PropOp32
 70
     1
102
RTVSPost2010Prop33
280
     0
102
RTVSPost2010PropOp33
 70
     1
102
RTVSPost2010Prop34
280
     0
102
RTVSPost2010PropOp34
 70
     1
102
RTVSPost2010Prop35
280
     0
102
RTVSPost2010PropOp35
 70
     1
102
RTVSPost2010Prop36
280
     0
102
RTVSPost2010PropOp36
 70
     1
102
RTVSPost2010Prop37
 90
       50
102
RTVSPost2010PropOp37
 70
     1
102
RTVSPost2010Prop38
140
0.0
102
RTVSPost2010PropOp38
 70
     1
102
RTVSPost2010Prop39
140
1.0
102
RTVSPost2010PropOp39
 70
     1
102
RTVSPost2010Prop40
 90
        0
102
RTVSPost2010PropOp40
 70
     1
102
RTVSPost2010Prop41ColorIndex
 90
       18
102
RTVSPost2010Prop41ColorRGB
 90
        0
102
RTVSPost2010PropOp41
 70
     1
102
RTVSPost2010Prop42
 90
       50
102
RTVSPost2010PropOp42
 70
     1
102
RTVSPost2010Prop43
 90
        3
102
RTVSPost2010PropOp43
 70
     1
102
RTVSPost2010Prop44ColorIndex
 90
        5
102
RTVSPost2010Prop44ColorRGB
 90
      255
102
RTVSPost2010PropOp44
 70
     1
102
RTVSPost2010Prop45
280
     0
102
RTVSPost2010PropOp45
 70
     1
102
RTVSPost2010Prop46
 90
       50
102
RTVSPost2010PropOp46
 70
     1
102
RTVSPost2010Prop47
 90
       50
102
RTVSPost2010PropOp47
 70
     1
102
RTVSPost2010Prop48
 90
       50
102
RTVSPost2010PropOp48
 70
     1
102
RTVSPost2010Prop49
280
     0
102
RTVSPost2010PropOp49
 70
     1
102
RTVSPost2010Prop50
 90
       50
102
RTVSPost2010PropOp50
 70
     1
102
RTVSPost2010Prop51ColorIndex
 90
      256
102
RTVSPost2010Prop51ColorRGB
 90
-16777216
102
RTVSPost2010PropOp51
 70
     0
102
RTVSPost2010Prop52
140
1.0
102
RTVSPost2010PropOp52
 70
     0
102
RTVSPost2010Prop53
 90
        2
102
RTVSPost2010PropOp53
 70
     1
102
RTVSPost2010Prop54
  1
strokes_ogs.tif
102
RTVSPost2010PropOp54
 70
     1
102
RTVSPost2010Prop55
280
     0
102
RTVSPost2010PropOp55
 70
     1
102
RTVSPost2010Prop56
140
1.0
102
RTVSPost2010PropOp56
 70
     1
102
RTVSPost2010Prop57
140
1.0
102
RTVSPost2010PropOp57
 70
     1
  0
XRECORD
  5
AA
102
{ACAD_REACTORS
330
A9
102
}
330
A9
100
AcDbXrecord
280
     1
102
RTVSPropertyOp0
 70
     1
102
RTVSPropertyOp1
 70
     1
102
RTVSPropertyOp2
 70
     1
102
RTVSPropertyOp3
 70
     1
102
RTVSPropertyOp4
 70
     1
102
RTVSPropertyOp5
 70
     1
102
RTVSPropertyOp6
 70
     1
102
RTVSPropertyOp7
 70
     1
102
RTVSPropertyOp8
 70
     1
102
RTVSPropertyOp9
 70
     1
102
RTVSPropertyOp10
 70
     1
102
RTVSPropertyOp11
 70
     1
102
RTVSPropertyOp12
 70
     1
102
RTVSPropertyOp13
 70
     1
102
RTVSPropertyOp14
 70
     1
102
RTVSPropertyOp15
 70
     1
102
RTVSPropertyOp16
 70
     1
102
RTVSPropertyOp17
 70
     1
102
RTVSPropertyOp18
 70
     1
102
RTVSPropertyOp19
 70
     1
102
RTVSPropertyOp20
 70
     1
102
RTVSPropertyOp21
 70
     1
102
RTVSPropertyOp22
 70
     1
102
RTVSPropertyOp23
 70
     1
102
RTVSPropertyOp24
 70
     1
102
RTVSPropertyOp25
 70
     1
102
RTVSPropertyOp26
 70
     1
102
RTVSPropertyOp27
 70
     1
102
RTVSPropertyOp28
 70
     1
102
RTVSPropertyOp29
 70
     1
102
RTVSPropertyOp30
 70
     1
102
RTVSPropertyOp31
 70
     1
102
RTVSPropertyOp32
 70
     1
102
RTVSPropertyOp33
 70
     1
102
RTVSPropertyOp34
 70
     1
102
RTVSPropertyOp35
 70
     1
102
RTVSPropertyOp36
 70
     1
102
RTVSPropertyOp37
 70
     1
102
RTVSPropertyOp38
 70
     1
102
RTVSPropertyOp39
 70
     1
102
RTVSPropertyOp40
 70
     1
102
RTVSPropertyOp41
 70
     1
102
RTVSPropertyOp42
 70
     1
102
RTVSPropertyOp43
 70
     1
102
RTVSPropertyOp44
 70
     1
102
RTVSPropertyOp45
 70
     1
102
RTVSPropertyOp46
 70
     1
102
RTVSPropertyOp47
 70
     1
102
RTVSPropertyOp48
 70
     1
102
RTVSPropertyOp49
 70
     1
102
RTVSPropertyOp50
 70
     1
102
RTVSPropertyOp51
 70
     0
102
RTVSPropertyOp52
 70
     0
102
RTVSPropertyOp53
 70
     1
102
RTVSPropertyOp54
 70
     1
102
RTVSPropertyOp55
 70
     1
102
RTVSPropertyOp56
 70
     1
102
RTVSPropertyOp57
 70
     1
102
RTVSPost2010Prop28
280
     0
102
RTVSPost2010PropOp28
 70
     1
102
RTVSPost2010Prop29
280
     1
102
RTVSPost2010PropOp29
 70
     1
102
RTVSPost2010Prop30
280
     1
102
RTVSPost2010PropOp30
 70
     1
102
RTVSPost2010Prop31
280
     0
102
RTVSPost2010PropOp31
 70
     1
102
RTVSPost2010Prop32
280
     0
102
RTVSPost2010PropOp32
 70
     1
102
RTVSPost2010Prop33
280
     0
102
RTVSPost2010PropOp33
 70
     1
102
RTVSPost2010Prop34
280
     0
102
RTVSPost2010PropOp34
 70
     1
102
RTVSPost2010Prop35
280
     0
102
RTVSPost2010PropOp35
 70
     1
102
RTVSPost2010Prop36
280
     0
102
RTVSPost2010PropOp36
 70
     1
102
RTVSPost2010Prop37
 90
       50
102
RTVSPost2010PropOp37
 70
     1
102
RTVSPost2010Prop38
140
0.0
102
RTVSPost2010PropOp38
 70
     1
102
RTVSPost2010Prop39
140
1.0
102
RTVSPost2010PropOp39
 70
     1
102
RTVSPost2010Prop40
 90
        0
102
RTVSPost2010PropOp40
 70
     1
102
RTVSPost2010Prop41ColorIndex
 90
       18
102
RTVSPost2010Prop41ColorRGB
 90
        0
102
RTVSPost2010PropOp41
 70
     1
102
RTVSPost2010Prop42
 90
       50
102
RTVSPost2010PropOp42
 70
     1
102
RTVSPost2010Prop43
 90
        3
102
RTVSPost2010PropOp43
 70
     1
102
RTVSPost2010Prop44ColorIndex
 90
        5
102
RTVSPost2010Prop44ColorRGB
 90
      255
102
RTVSPost2010PropOp44
 70
     1
102
RTVSPost2010Prop45
280
     0
102
RTVSPost2010PropOp45
 70
     1
102
RTVSPost2010Prop46
 90
       50
102
RTVSPost2010PropOp46
 70
     1
102
RTVSPost2010Prop47
 90
       50
102
RTVSPost2010PropOp47
 70
     1
102
RTVSPost2010Prop48
 90
       50
102
RTVSPost2010PropOp48
 70
     1
102
RTVSPost2010Prop49
280
     0
102
RTVSPost2010PropOp49
 70
     1
102
RTVSPost2010Prop50
 90
       50
102
RTVSPost2010PropOp50
 70
     1
102
RTVSPost2010Prop51ColorIndex
 90
      256
102
RTVSPost2010Prop51ColorRGB
 90
-16777216
102
RTVSPost2010PropOp51
 70
     0
102
RTVSPost2010Prop52
140
1.0
102
RTVSPost2010PropOp52
 70
     0
102
RTVSPost2010Prop53
 90
        2
102
RTVSPost2010PropOp53
 70
     1
102
RTVSPost2010Prop54
  1
strokes_ogs.tif
102
RTVSPost2010PropOp54
 70
     1
102
RTVSPost2010Prop55
280
     0
102
RTVSPost2010PropOp55
 70
     1
102
RTVSPost2010Prop56
140
1.0
102
RTVSPost2010PropOp56
 70
     1
102
RTVSPost2010Prop57
140
1.0
102
RTVSPost2010PropOp57
 70
     1
  0
XRECORD
  5
BA
102
{ACAD_REACTORS
330
B9
102
}
330
B9
100
AcDbXrecord
280
     1
102
RTVSPropertyOp0
 70
     0
102
RTVSPropertyOp1
 70
     0
102
RTVSPropertyOp2
 70
     0
102
RTVSPropertyOp3
 70
     0
102
RTVSPropertyOp4
 70
     0
102
RTVSPropertyOp5
 70
     0
102
RTVSPropertyOp6
 70
     0
102
RTVSPropertyOp7
 70
     0
102
RTVSPropertyOp8
 70
     0
102
RTVSPropertyOp9
 70
     0
102
RTVSPropertyOp10
 70
     0
102
RTVSPropertyOp11
 70
     0
102
RTVSPropertyOp12
 70
     0
102
RTVSPropertyOp13
 70
     0
102
RTVSPropertyOp14
 70
     2
102
RTVSPropertyOp15
 70
     0
102
RTVSPropertyOp16
 70
     0
102
RTVSPropertyOp17
 70
     0
102
RTVSPropertyOp18
 70
     0
102
RTVSPropertyOp19
 70
     0
102
RTVSPropertyOp20
 70
     0
102
RTVSPropertyOp21
 70
     0
102
RTVSPropertyOp22
 70
     0
102
RTVSPropertyOp23
 70
     0
102
RTVSPropertyOp24
 70
     0
102
RTVSPropertyOp25
 70
     0
102
RTVSPropertyOp26
 70
     0
102
RTVSPropertyOp27
 70
     0
102
RTVSPropertyOp28
 70
     0
102
RTVSPropertyOp29
 70
     0
102
RTVSPropertyOp30
 70
     0
102
RTVSPropertyOp31
 70
     0
102
RTVSPropertyOp32
 70
     0
102
RTVSPropertyOp33
 70
     0
102
RTVSPropertyOp34
 70
     0
102
RTVSPropertyOp35
 70
     0
102
RTVSPropertyOp36
 70
     0
102
RTVSPropertyOp37
 70
     0
102
RTVSPropertyOp38
 70
     0
102
RTVSPropertyOp39
 70
     0
102
RTVSPropertyOp40
 70
     0
102
RTVSPropertyOp41
 70
     0
102
RTVSPropertyOp42
 70
     0
102
RTVSPropertyOp43
 70
     0
102
RTVSPropertyOp44
 70
     0
102
RTVSPropertyOp45
 70
     0
102
RTVSPropertyOp46
 70
     0
102
RTVSPropertyOp47
 70
     0
102
RTVSPropertyOp48
 70
     0
102
RTVSPropertyOp49
 70
     0
102
RTVSPropertyOp50
 70
     0
102
RTVSPropertyOp51
 70
     0
102
RTVSPropertyOp52
 70
     0
102
RTVSPropertyOp53
 70
     0
102
RTVSPropertyOp54
 70
     0
102
RTVSPropertyOp55
 70
     0
102
RTVSPropertyOp56
 70
     0
102
RTVSPropertyOp57
 70
     0
102
RTVSPost2010Prop28
280
     0
102
RTVSPost2010PropOp28
 70
     0
102
RTVSPost2010Prop29
280
     1
102
RTVSPost2010PropOp29
 70
     0
102
RTVSPost2010Prop30
280
     1
102
RTVSPost2010PropOp30
 70
     0
102
RTVSPost2010Prop31
280
     0
102
RTVSPost2010PropOp31
 70
     0
102
RTVSPost2010Prop32
280
     0
102
RTVSPost2010PropOp32
 70
     0
102
RTVSPost2010Prop33
280
     0
102
RTVSPost2010PropOp33
 70
     0
102
RTVSPost2010Prop34
280
     0
102
RTVSPost2010PropOp34
 70
     0
102
RTVSPost2010Prop35
280
     0
102
RTVSPost2010PropOp35
 70
     0
102
RTVSPost2010Prop36
280
     0
102
RTVSPost2010PropOp36
 70
     0
102
RTVSPost2010Prop37
 90
       50
102
RTVSPost2010PropOp37
 70
     0
102
RTVSPost2010Prop38
140
0.0
102
RTVSPost2010PropOp38
 70
     0
102
RTVSPost2010Prop39
140
1.0
102
RTVSPost2010PropOp39
 70
     0
102
RTVSPost2010Prop40
 90
        0
102
RTVSPost2010PropOp40
 70
     0
102
RTVSPost2010Prop41ColorIndex
 90
       18
102
RTVSPost2010Prop41ColorRGB
 90
        0
102
RTVSPost2010PropOp41
 70
     0
102
RTVSPost2010Prop42
 90
       50
102
RTVSPost2010PropOp42
 70
     0
102
RTVSPost2010Prop43
 90
        3
102
RTVSPost2010PropOp43
 70
     0
102
RTVSPost2010Prop44ColorIndex
 90
        5
102
RTVSPost2010Prop44ColorRGB
 90
      255
102
RTVSPost2010PropOp44
 70
     0
102
RTVSPost2010Prop45
280
     0
102
RTVSPost2010PropOp45
 70
     0
102
RTVSPost2010Prop46
 90
       50
102
RTVSPost2010PropOp46
 70
     0
102
RTVSPost2010Prop47
 90
       50
102
RTVSPost2010PropOp47
 70
     0
102
RTVSPost2010Prop48
 90
       50
102
RTVSPost2010PropOp48
 70
     0
102
RTVSPost2010Prop49
280
     0
102
RTVSPost2010PropOp49
 70
     0
102
RTVSPost2010Prop50
 90
       50
102
RTVSPost2010PropOp50
 70
     0
102
RTVSPost2010Prop51ColorIndex
 90
      256
102
RTVSPost2010Prop51ColorRGB
 90
-16777216
102
RTVSPost2010PropOp51
 70
     0
102
RTVSPost2010Prop52
140
1.0
102
RTVSPost2010PropOp52
 70
     0
102
RTVSPost2010Prop53
 90
        2
102
RTVSPost2010PropOp53
 70
     0
102
RTVSPost2010Prop54
  1
strokes_ogs.tif
102
RTVSPost2010PropOp54
 70
     0
102
RTVSPost2010Prop55
280
     0
102
RTVSPost2010PropOp55
 70
     0
102
RTVSPost2010Prop56
140
1.0
102
RTVSPost2010PropOp56
 70
     0
102
RTVSPost2010Prop57
140
1.0
102
RTVSPost2010PropOp57
 70
     0
  0
XRECORD
  5
B2
102
{ACAD_REACTORS
330
B1
102
}
330
B1
100
AcDbXrecord
280
     1
102
RTVSPropertyOp0
 70
     1
102
RTVSPropertyOp1
 70
     1
102
RTVSPropertyOp2
 70
     1
102
RTVSPropertyOp3
 70
     1
102
RTVSPropertyOp4
 70
     1
102
RTVSPropertyOp5
 70
     1
102
RTVSPropertyOp6
 70
     1
102
RTVSPropertyOp7
 70
     1
102
RTVSPropertyOp8
 70
     1
102
RTVSPropertyOp9
 70
     1
102
RTVSPropertyOp10
 70
     1
102
RTVSPropertyOp11
 70
     1
102
RTVSPropertyOp12
 70
     1
102
RTVSPropertyOp13
 70
     1
102
RTVSPropertyOp14
 70
     1
102
RTVSPropertyOp15
 70
     1
102
RTVSPropertyOp16
 70
     1
102
RTVSPropertyOp17
 70
     1
102
RTVSPropertyOp18
 70
     1
102
RTVSPropertyOp19
 70
     1
102
RTVSPropertyOp20
 70
     1
102
RTVSPropertyOp21
 70
     1
102
RTVSPropertyOp22
 70
     1
102
RTVSPropertyOp23
 70
     1
102
RTVSPropertyOp24
 70
     1
102
RTVSPropertyOp25
 70
     1
102
RTVSPropertyOp26
 70
     1
102
RTVSPropertyOp27
 70
     1
102
RTVSPropertyOp28
 70
     1
102
RTVSPropertyOp29
 70
     1
102
RTVSPropertyOp30
 70
     1
102
RTVSPropertyOp31
 70
     1
102
RTVSPropertyOp32
 70
     1
102
RTVSPropertyOp33
 70
     1
102
RTVSPropertyOp34
 70
     1
102
RTVSPropertyOp35
 70
     1
102
RTVSPropertyOp36
 70
     1
102
RTVSPropertyOp37
 70
     1
102
RTVSPropertyOp38
 70
     1
102
RTVSPropertyOp39
 70
     1
102
RTVSPropertyOp40
 70
     1
102
RTVSPropertyOp41
 70
     1
102
RTVSPropertyOp42
 70
     1
102
RTVSPropertyOp43
 70
     1
102
RTVSPropertyOp44
 70
     1
102
RTVSPropertyOp45
 70
     1
102
RTVSPropertyOp46
 70
     1
102
RTVSPropertyOp47
 70
     1
102
RTVSPropertyOp48
 70
     1
102
RTVSPropertyOp49
 70
     1
102
RTVSPropertyOp50
 70
     1
102
RTVSPropertyOp51
 70
     0
102
RTVSPropertyOp52
 70
     0
102
RTVSPropertyOp53
 70
     1
102
RTVSPropertyOp54
 70
     1
102
RTVSPropertyOp55
 70
     1
102
RTVSPropertyOp56
 70
     1
102
RTVSPropertyOp57
 70
     1
102
RTVSPost2010Prop28
280
     0
102
RTVSPost2010PropOp28
 70
     1
102
RTVSPost2010Prop29
280
     1
102
RTVSPost2010PropOp29
 70
     1
102
RTVSPost2010Prop30
280
     1
102
RTVSPost2010PropOp30
 70
     1
102
RTVSPost2010Prop31
280
     0
102
RTVSPost2010PropOp31
 70
     1
102
RTVSPost2010Prop32
280
     0
102
RTVSPost2010PropOp32
 70
     1
102
RTVSPost2010Prop33
280
     0
102
RTVSPost2010PropOp33
 70
     1
102
RTVSPost2010Prop34
280
     0
102
RTVSPost2010PropOp34
 70
     1
102
RTVSPost2010Prop35
280
     0
102
RTVSPost2010PropOp35
 70
     1
102
RTVSPost2010Prop36
280
     0
102
RTVSPost2010PropOp36
 70
     1
102
RTVSPost2010Prop37
 90
       50
102
RTVSPost2010PropOp37
 70
     1
102
RTVSPost2010Prop38
140
0.0
102
RTVSPost2010PropOp38
 70
     1
102
RTVSPost2010Prop39
140
1.0
102
RTVSPost2010PropOp39
 70
     1
102
RTVSPost2010Prop40
 90
        0
102
RTVSPost2010PropOp40
 70
     1
102
RTVSPost2010Prop41ColorIndex
 90
       18
102
RTVSPost2010Prop41ColorRGB
 90
        0
102
RTVSPost2010PropOp41
 70
     1
102
RTVSPost2010Prop42
 90
       50
102
RTVSPost2010PropOp42
 70
     1
102
RTVSPost2010Prop43
 90
        3
102
RTVSPost2010PropOp43
 70
     1
102
RTVSPost2010Prop44ColorIndex
 90
        5
102
RTVSPost2010Prop44ColorRGB
 90
      255
102
RTVSPost2010PropOp44
 70
     1
102
RTVSPost2010Prop45
280
     0
102
RTVSPost2010PropOp45
 70
     1
102
RTVSPost2010Prop46
 90
       50
102
RTVSPost2010PropOp46
 70
     1
102
RTVSPost2010Prop47
 90
       50
102
RTVSPost2010PropOp47
 70
     1
102
RTVSPost2010Prop48
 90
       50
102
RTVSPost2010PropOp48
 70
     1
102
RTVSPost2010Prop49
280
     0
102
RTVSPost2010PropOp49
 70
     1
102
RTVSPost2010Prop50
 90
       50
102
RTVSPost2010PropOp50
 70
     1
102
RTVSPost2010Prop51ColorIndex
 90
      256
102
RTVSPost2010Prop51ColorRGB
 90
-16777216
102
RTVSPost2010PropOp51
 70
     0
102
RTVSPost2010Prop52
140
1.0
102
RTVSPost2010PropOp52
 70
     0
102
RTVSPost2010Prop53
 90
        2
102
RTVSPost2010PropOp53
 70
     1
102
RTVSPost2010Prop54
  1
strokes_ogs.tif
102
RTVSPost2010PropOp54
 70
     1
102
RTVSPost2010Prop55
280
     0
102
RTVSPost2010PropOp55
 70
     1
102
RTVSPost2010Prop56
140
1.0
102
RTVSPost2010PropOp56
 70
     1
102
RTVSPost2010Prop57
140
1.0
102
RTVSPost2010PropOp57
 70
     1
  0
XRECORD
  5
96
102
{ACAD_REACTORS
330
95
102
}
330
95
100
AcDbXrecord
280
     1
102
RTVSPropertyOp0
 70
     1
102
RTVSPropertyOp1
 70
     1
102
RTVSPropertyOp2
 70
     1
102
RTVSPropertyOp3
 70
     1
102
RTVSPropertyOp4
 70
     1
102
RTVSPropertyOp5
 70
     1
102
RTVSPropertyOp6
 70
     1
102
RTVSPropertyOp7
 70
     1
102
RTVSPropertyOp8
 70
     1
102
RTVSPropertyOp9
 70
     1
102
RTVSPropertyOp10
 70
     1
102
RTVSPropertyOp11
 70
     1
102
RTVSPropertyOp12
 70
     1
102
RTVSPropertyOp13
 70
     1
102
RTVSPropertyOp14
 70
     1
102
RTVSPropertyOp15
 70
     1
102
RTVSPropertyOp16
 70
     1
102
RTVSPropertyOp17
 70
     1
102
RTVSPropertyOp18
 70
     1
102
RTVSPropertyOp19
 70
     1
102
RTVSPropertyOp20
 70
     1
102
RTVSPropertyOp21
 70
     1
102
RTVSPropertyOp22
 70
     1
102
RTVSPropertyOp23
 70
     1
102
RTVSPropertyOp24
 70
     1
102
RTVSPropertyOp25
 70
     1
102
RTVSPropertyOp26
 70
     1
102
RTVSPropertyOp27
 70
     1
102
RTVSPropertyOp28
 70
     1
102
RTVSPropertyOp29
 70
     1
102
RTVSPropertyOp30
 70
     1
102
RTVSPropertyOp31
 70
     1
102
RTVSPropertyOp32
 70
     1
102
RTVSPropertyOp33
 70
     1
102
RTVSPropertyOp34
 70
     1
102
RTVSPropertyOp35
 70
     1
102
RTVSPropertyOp36
 70
     1
102
RTVSPropertyOp37
 70
     1
102
RTVSPropertyOp38
 70
     1
102
RTVSPropertyOp39
 70
     1
102
RTVSPropertyOp40
 70
     1
102
RTVSPropertyOp41
 70
     1
102
RTVSPropertyOp42
 70
     1
102
RTVSPropertyOp43
 70
     1
102
RTVSPropertyOp44
 70
     1
102
RTVSPropertyOp45
 70
     1
102
RTVSPropertyOp46
 70
     1
102
RTVSPropertyOp47
 70
     1
102
RTVSPropertyOp48
 70
     1
102
RTVSPropertyOp49
 70
     1
102
RTVSPropertyOp50
 70
     1
102
RTVSPropertyOp51
 70
     0
102
RTVSPropertyOp52
 70
     0
102
RTVSPropertyOp53
 70
     1
102
RTVSPropertyOp54
 70
     1
102
RTVSPropertyOp55
 70
     1
102
RTVSPropertyOp56
 70
     1
102
RTVSPropertyOp57
 70
     1
102
RTVSPost2010Prop28
280
     0
102
RTVSPost2010PropOp28
 70
     1
102
RTVSPost2010Prop29
280
     1
102
RTVSPost2010PropOp29
 70
     1
102
RTVSPost2010Prop30
280
     1
102
RTVSPost2010PropOp30
 70
     1
102
RTVSPost2010Prop31
280
     0
102
RTVSPost2010PropOp31
 70
     1
102
RTVSPost2010Prop32
280
     0
102
RTVSPost2010PropOp32
 70
     1
102
RTVSPost2010Prop33
280
     0
102
RTVSPost2010PropOp33
 70
     1
102
RTVSPost2010Prop34
280
     0
102
RTVSPost2010PropOp34
 70
     1
102
RTVSPost2010Prop35
280
     0
102
RTVSPost2010PropOp35
 70
     1
102
RTVSPost2010Prop36
280
     0
102
RTVSPost2010PropOp36
 70
     1
102
RTVSPost2010Prop37
 90
       50
102
RTVSPost2010PropOp37
 70
     1
102
RTVSPost2010Prop38
140
0.0
102
RTVSPost2010PropOp38
 70
     1
102
RTVSPost2010Prop39
140
1.0
102
RTVSPost2010PropOp39
 70
     1
102
RTVSPost2010Prop40
 90
        0
102
RTVSPost2010PropOp40
 70
     1
102
RTVSPost2010Prop41ColorIndex
 90
       18
102
RTVSPost2010Prop41ColorRGB
 90
        0
102
RTVSPost2010PropOp41
 70
     1
102
RTVSPost2010Prop42
 90
       50
102
RTVSPost2010PropOp42
 70
     1
102
RTVSPost2010Prop43
 90
        3
102
RTVSPost2010PropOp43
 70
     1
102
RTVSPost2010Prop44ColorIndex
 90
        5
102
RTVSPost2010Prop44ColorRGB
 90
      255
102
RTVSPost2010PropOp44
 70
     1
102
RTVSPost2010Prop45
280
     0
102
RTVSPost2010PropOp45
 70
     1
102
RTVSPost2010Prop46
 90
       50
102
RTVSPost2010PropOp46
 70
     1
102
RTVSPost2010Prop47
 90
       50
102
RTVSPost2010PropOp47
 70
     1
102
RTVSPost2010Prop48
 90
       50
102
RTVSPost2010PropOp48
 70
     1
102
RTVSPost2010Prop49
280
     0
102
RTVSPost2010PropOp49
 70
     1
102
RTVSPost2010Prop50
 90
       50
102
RTVSPost2010PropOp50
 70
     1
102
RTVSPost2010Prop51ColorIndex
 90
      256
102
RTVSPost2010Prop51ColorRGB
 90
-16777216
102
RTVSPost2010PropOp51
 70
     0
102
RTVSPost2010Prop52
140
1.0
102
RTVSPost2010PropOp52
 70
     0
102
RTVSPost2010Prop53
 90
        2
102
RTVSPost2010PropOp53
 70
     1
102
RTVSPost2010Prop54
  1
strokes_ogs.tif
102
RTVSPost2010PropOp54
 70
     1
102
RTVSPost2010Prop55
280
     0
102
RTVSPost2010PropOp55
 70
     1
102
RTVSPost2010Prop56
140
1.0
102
RTVSPost2010PropOp56
 70
     1
102
RTVSPost2010Prop57
140
1.0
102
RTVSPost2010PropOp57
 70
     1
  0
XRECORD
  5
98
102
{ACAD_REACTORS
330
97
102
}
330
97
100
AcDbXrecord
280
     1
102
RTVSPropertyOp0
 70
     1
102
RTVSPropertyOp1
 70
     1
102
RTVSPropertyOp2
 70
     1
102
RTVSPropertyOp3
 70
     1
102
RTVSPropertyOp4
 70
     1
102
RTVSPropertyOp5
 70
     1
102
RTVSPropertyOp6
 70
     1
102
RTVSPropertyOp7
 70
     1
102
RTVSPropertyOp8
 70
     1
102
RTVSPropertyOp9
 70
     1
102
RTVSPropertyOp10
 70
     1
102
RTVSPropertyOp11
 70
     1
102
RTVSPropertyOp12
 70
     1
102
RTVSPropertyOp13
 70
     1
102
RTVSPropertyOp14
 70
     1
102
RTVSPropertyOp15
 70
     1
102
RTVSPropertyOp16
 70
     1
102
RTVSPropertyOp17
 70
     1
102
RTVSPropertyOp18
 70
     1
102
RTVSPropertyOp19
 70
     1
102
RTVSPropertyOp20
 70
     1
102
RTVSPropertyOp21
 70
     1
102
RTVSPropertyOp22
 70
     1
102
RTVSPropertyOp23
 70
     1
102
RTVSPropertyOp24
 70
     1
102
RTVSPropertyOp25
 70
     1
102
RTVSPropertyOp26
 70
     1
102
RTVSPropertyOp27
 70
     1
102
RTVSPropertyOp28
 70
     1
102
RTVSPropertyOp29
 70
     1
102
RTVSPropertyOp30
 70
     1
102
RTVSPropertyOp31
 70
     1
102
RTVSPropertyOp32
 70
     1
102
RTVSPropertyOp33
 70
     1
102
RTVSPropertyOp34
 70
     1
102
RTVSPropertyOp35
 70
     1
102
RTVSPropertyOp36
 70
     1
102
RTVSPropertyOp37
 70
     1
102
RTVSPropertyOp38
 70
     1
102
RTVSPropertyOp39
 70
     1
102
RTVSPropertyOp40
 70
     1
102
RTVSPropertyOp41
 70
     1
102
RTVSPropertyOp42
 70
     1
102
RTVSPropertyOp43
 70
     1
102
RTVSPropertyOp44
 70
     1
102
RTVSPropertyOp45
 70
     1
102
RTVSPropertyOp46
 70
     1
102
RTVSPropertyOp47
 70
     1
102
RTVSPropertyOp48
 70
     1
102
RTVSPropertyOp49
 70
     1
102
RTVSPropertyOp50
 70
     1
102
RTVSPropertyOp51
 70
     0
102
RTVSPropertyOp52
 70
     0
102
RTVSPropertyOp53
 70
     1
102
RTVSPropertyOp54
 70
     1
102
RTVSPropertyOp55
 70
     1
102
RTVSPropertyOp56
 70
     1
102
RTVSPropertyOp57
 70
     1
102
RTVSPost2010Prop28
280
     0
102
RTVSPost2010PropOp28
 70
     1
102
RTVSPost2010Prop29
280
     1
102
RTVSPost2010PropOp29
 70
     1
102
RTVSPost2010Prop30
280
     1
102
RTVSPost2010PropOp30
 70
     1
102
RTVSPost2010Prop31
280
     0
102
RTVSPost2010PropOp31
 70
     1
102
RTVSPost2010Prop32
280
     0
102
RTVSPost2010PropOp32
 70
     1
102
RTVSPost2010Prop33
280
     0
102
RTVSPost2010PropOp33
 70
     1
102
RTVSPost2010Prop34
280
     0
102
RTVSPost2010PropOp34
 70
     1
102
RTVSPost2010Prop35
280
     0
102
RTVSPost2010PropOp35
 70
     1
102
RTVSPost2010Prop36
280
     0
102
RTVSPost2010PropOp36
 70
     1
102
RTVSPost2010Prop37
 90
       50
102
RTVSPost2010PropOp37
 70
     1
102
RTVSPost2010Prop38
140
0.0
102
RTVSPost2010PropOp38
 70
     1
102
RTVSPost2010Prop39
140
1.0
102
RTVSPost2010PropOp39
 70
     1
102
RTVSPost2010Prop40
 90
        0
102
RTVSPost2010PropOp40
 70
     1
102
RTVSPost2010Prop41ColorIndex
 90
       18
102
RTVSPost2010Prop41ColorRGB
 90
        0
102
RTVSPost2010PropOp41
 70
     1
102
RTVSPost2010Prop42
 90
       50
102
RTVSPost2010PropOp42
 70
     1
102
RTVSPost2010Prop43
 90
        3
102
RTVSPost2010PropOp43
 70
     1
102
RTVSPost2010Prop44ColorIndex
 90
        5
102
RTVSPost2010Prop44ColorRGB
 90
      255
102
RTVSPost2010PropOp44
 70
     1
102
RTVSPost2010Prop45
280
     0
102
RTVSPost2010PropOp45
 70
     1
102
RTVSPost2010Prop46
 90
       50
102
RTVSPost2010PropOp46
 70
     1
102
RTVSPost2010Prop47
 90
       50
102
RTVSPost2010PropOp47
 70
     1
102
RTVSPost2010Prop48
 90
       50
102
RTVSPost2010PropOp48
 70
     1
102
RTVSPost2010Prop49
280
     0
102
RTVSPost2010PropOp49
 70
     1
102
RTVSPost2010Prop50
 90
       50
102
RTVSPost2010PropOp50
 70
     1
102
RTVSPost2010Prop51ColorIndex
 90
      256
102
RTVSPost2010Prop51ColorRGB
 90
-16777216
102
RTVSPost2010PropOp51
 70
     0
102
RTVSPost2010Prop52
140
1.0
102
RTVSPost2010PropOp52
 70
     0
102
RTVSPost2010Prop53
 90
        2
102
RTVSPost2010PropOp53
 70
     1
102
RTVSPost2010Prop54
  1
strokes_ogs.tif
102
RTVSPost2010PropOp54
 70
     1
102
RTVSPost2010Prop55
280
     0
102
RTVSPost2010PropOp55
 70
     1
102
RTVSPost2010Prop56
140
1.0
102
RTVSPost2010PropOp56
 70
     1
102
RTVSPost2010Prop57
140
1.0
102
RTVSPost2010PropOp57
 70
     1
  0
XRECORD
  5
9A
102
{ACAD_REACTORS
330
99
102
}
330
99
100
AcDbXrecord
280
     1
102
RTVSPropertyOp0
 70
     1
102
RTVSPropertyOp1
 70
     1
102
RTVSPropertyOp2
 70
     1
102
RTVSPropertyOp3
 70
     1
102
RTVSPropertyOp4
 70
     1
102
RTVSPropertyOp5
 70
     1
102
RTVSPropertyOp6
 70
     1
102
RTVSPropertyOp7
 70
     1
102
RTVSPropertyOp8
 70
     1
102
RTVSPropertyOp9
 70
     1
102
RTVSPropertyOp10
 70
     1
102
RTVSPropertyOp11
 70
     1
102
RTVSPropertyOp12
 70
     1
102
RTVSPropertyOp13
 70
     1
102
RTVSPropertyOp14
 70
     1
102
RTVSPropertyOp15
 70
     1
102
RTVSPropertyOp16
 70
     1
102
RTVSPropertyOp17
 70
     1
102
RTVSPropertyOp18
 70
     1
102
RTVSPropertyOp19
 70
     1
102
RTVSPropertyOp20
 70
     1
102
RTVSPropertyOp21
 70
     1
102
RTVSPropertyOp22
 70
     1
102
RTVSPropertyOp23
 70
     1
102
RTVSPropertyOp24
 70
     1
102
RTVSPropertyOp25
 70
     1
102
RTVSPropertyOp26
 70
     1
102
RTVSPropertyOp27
 70
     1
102
RTVSPropertyOp28
 70
     1
102
RTVSPropertyOp29
 70
     1
102
RTVSPropertyOp30
 70
     1
102
RTVSPropertyOp31
 70
     1
102
RTVSPropertyOp32
 70
     1
102
RTVSPropertyOp33
 70
     1
102
RTVSPropertyOp34
 70
     1
102
RTVSPropertyOp35
 70
     1
102
RTVSPropertyOp36
 70
     1
102
RTVSPropertyOp37
 70
     1
102
RTVSPropertyOp38
 70
     1
102
RTVSPropertyOp39
 70
     1
102
RTVSPropertyOp40
 70
     1
102
RTVSPropertyOp41
 70
     1
102
RTVSPropertyOp42
 70
     1
102
RTVSPropertyOp43
 70
     1
102
RTVSPropertyOp44
 70
     1
102
RTVSPropertyOp45
 70
     1
102
RTVSPropertyOp46
 70
     1
102
RTVSPropertyOp47
 70
     1
102
RTVSPropertyOp48
 70
     1
102
RTVSPropertyOp49
 70
     1
102
RTVSPropertyOp50
 70
     1
102
RTVSPropertyOp51
 70
     0
102
RTVSPropertyOp52
 70
     0
102
RTVSPropertyOp53
 70
     1
102
RTVSPropertyOp54
 70
     1
102
RTVSPropertyOp55
 70
     1
102
RTVSPropertyOp56
 70
     1
102
RTVSPropertyOp57
 70
     1
102
RTVSPost2010Prop28
280
     0
102
RTVSPost2010PropOp28
 70
     1
102
RTVSPost2010Prop29
280
     1
102
RTVSPost2010PropOp29
 70
     1
102
RTVSPost2010Prop30
280
     1
102
RTVSPost2010PropOp30
 70
     1
102
RTVSPost2010Prop31
280
     0
102
RTVSPost2010PropOp31
 70
     1
102
RTVSPost2010Prop32
280
     0
102
RTVSPost2010PropOp32
 70
     1
102
RTVSPost2010Prop33
280
     0
102
RTVSPost2010PropOp33
 70
     1
102
RTVSPost2010Prop34
280
     0
102
RTVSPost2010PropOp34
 70
     1
102
RTVSPost2010Prop35
280
     0
102
RTVSPost2010PropOp35
 70
     1
102
RTVSPost2010Prop36
280
     0
102
RTVSPost2010PropOp36
 70
     1
102
RTVSPost2010Prop37
 90
       50
102
RTVSPost2010PropOp37
 70
     1
102
RTVSPost2010Prop38
140
0.0
102
RTVSPost2010PropOp38
 70
     1
102
RTVSPost2010Prop39
140
1.0
102
RTVSPost2010PropOp39
 70
     1
102
RTVSPost2010Prop40
 90
        0
102
RTVSPost2010PropOp40
 70
     1
102
RTVSPost2010Prop41ColorIndex
 90
       18
102
RTVSPost2010Prop41ColorRGB
 90
        0
102
RTVSPost2010PropOp41
 70
     1
102
RTVSPost2010Prop42
 90
       50
102
RTVSPost2010PropOp42
 70
     1
102
RTVSPost2010Prop43
 90
        3
102
RTVSPost2010PropOp43
 70
     1
102
RTVSPost2010Prop44ColorIndex
 90
        5
102
RTVSPost2010Prop44ColorRGB
 90
      255
102
RTVSPost2010PropOp44
 70
     1
102
RTVSPost2010Prop45
280
     0
102
RTVSPost2010PropOp45
 70
     1
102
RTVSPost2010Prop46
 90
       50
102
RTVSPost2010PropOp46
 70
     1
102
RTVSPost2010Prop47
 90
       50
102
RTVSPost2010PropOp47
 70
     1
102
RTVSPost2010Prop48
 90
       50
102
RTVSPost2010PropOp48
 70
     1
102
RTVSPost2010Prop49
280
     0
102
RTVSPost2010PropOp49
 70
     1
102
RTVSPost2010Prop50
 90
       50
102
RTVSPost2010PropOp50
 70
     1
102
RTVSPost2010Prop51ColorIndex
 90
      256
102
RTVSPost2010Prop51ColorRGB
 90
-16777216
102
RTVSPost2010PropOp51
 70
     0
102
RTVSPost2010Prop52
140
1.0
102
RTVSPost2010PropOp52
 70
     0
102
RTVSPost2010Prop53
 90
        2
102
RTVSPost2010PropOp53
 70
     1
102
RTVSPost2010Prop54
  1
strokes_ogs.tif
102
RTVSPost2010PropOp54
 70
     1
102
RTVSPost2010Prop55
280
     0
102
RTVSPost2010PropOp55
 70
     1
102
RTVSPost2010Prop56
140
1.0
102
RTVSPost2010PropOp56
 70
     1
102
RTVSPost2010Prop57
140
1.0
102
RTVSPost2010PropOp57
 70
     1
  0
XRECORD
  5
9C
102
{ACAD_REACTORS
330
9B
102
}
330
9B
100
AcDbXrecord
280
     1
102
RTVSPropertyOp0
 70
     1
102
RTVSPropertyOp1
 70
     1
102
RTVSPropertyOp2
 70
     1
102
RTVSPropertyOp3
 70
     1
102
RTVSPropertyOp4
 70
     1
102
RTVSPropertyOp5
 70
     1
102
RTVSPropertyOp6
 70
     1
102
RTVSPropertyOp7
 70
     1
102
RTVSPropertyOp8
 70
     1
102
RTVSPropertyOp9
 70
     1
102
RTVSPropertyOp10
 70
     1
102
RTVSPropertyOp11
 70
     1
102
RTVSPropertyOp12
 70
     1
102
RTVSPropertyOp13
 70
     1
102
RTVSPropertyOp14
 70
     1
102
RTVSPropertyOp15
 70
     1
102
RTVSPropertyOp16
 70
     1
102
RTVSPropertyOp17
 70
     1
102
RTVSPropertyOp18
 70
     1
102
RTVSPropertyOp19
 70
     1
102
RTVSPropertyOp20
 70
     1
102
RTVSPropertyOp21
 70
     1
102
RTVSPropertyOp22
 70
     1
102
RTVSPropertyOp23
 70
     1
102
RTVSPropertyOp24
 70
     1
102
RTVSPropertyOp25
 70
     1
102
RTVSPropertyOp26
 70
     1
102
RTVSPropertyOp27
 70
     1
102
RTVSPropertyOp28
 70
     1
102
RTVSPropertyOp29
 70
     1
102
RTVSPropertyOp30
 70
     1
102
RTVSPropertyOp31
 70
     1
102
RTVSPropertyOp32
 70
     1
102
RTVSPropertyOp33
 70
     1
102
RTVSPropertyOp34
 70
     1
102
RTVSPropertyOp35
 70
     1
102
RTVSPropertyOp36
 70
     1
102
RTVSPropertyOp37
 70
     1
102
RTVSPropertyOp38
 70
     1
102
RTVSPropertyOp39
 70
     1
102
RTVSPropertyOp40
 70
     1
102
RTVSPropertyOp41
 70
     1
102
RTVSPropertyOp42
 70
     1
102
RTVSPropertyOp43
 70
     1
102
RTVSPropertyOp44
 70
     1
102
RTVSPropertyOp45
 70
     1
102
RTVSPropertyOp46
 70
     1
102
RTVSPropertyOp47
 70
     1
102
RTVSPropertyOp48
 70
     1
102
RTVSPropertyOp49
 70
     1
102
RTVSPropertyOp50
 70
     1
102
RTVSPropertyOp51
 70
     0
102
RTVSPropertyOp52
 70
     0
102
RTVSPropertyOp53
 70
     1
102
RTVSPropertyOp54
 70
     1
102
RTVSPropertyOp55
 70
     1
102
RTVSPropertyOp56
 70
     1
102
RTVSPropertyOp57
 70
     1
102
RTVSPost2010Prop28
280
     0
102
RTVSPost2010PropOp28
 70
     1
102
RTVSPost2010Prop29
280
     1
102
RTVSPost2010PropOp29
 70
     1
102
RTVSPost2010Prop30
280
     1
102
RTVSPost2010PropOp30
 70
     1
102
RTVSPost2010Prop31
280
     0
102
RTVSPost2010PropOp31
 70
     1
102
RTVSPost2010Prop32
280
     0
102
RTVSPost2010PropOp32
 70
     1
102
RTVSPost2010Prop33
280
     0
102
RTVSPost2010PropOp33
 70
     1
102
RTVSPost2010Prop34
280
     0
102
RTVSPost2010PropOp34
 70
     1
102
RTVSPost2010Prop35
280
     0
102
RTVSPost2010PropOp35
 70
     1
102
RTVSPost2010Prop36
280
     0
102
RTVSPost2010PropOp36
 70
     1
102
RTVSPost2010Prop37
 90
       50
102
RTVSPost2010PropOp37
 70
     1
102
RTVSPost2010Prop38
140
0.0
102
RTVSPost2010PropOp38
 70
     1
102
RTVSPost2010Prop39
140
1.0
102
RTVSPost2010PropOp39
 70
     1
102
RTVSPost2010Prop40
 90
        0
102
RTVSPost2010PropOp40
 70
     1
102
RTVSPost2010Prop41ColorIndex
 90
       18
102
RTVSPost2010Prop41ColorRGB
 90
        0
102
RTVSPost2010PropOp41
 70
     1
102
RTVSPost2010Prop42
 90
       50
102
RTVSPost2010PropOp42
 70
     1
102
RTVSPost2010Prop43
 90
        3
102
RTVSPost2010PropOp43
 70
     1
102
RTVSPost2010Prop44ColorIndex
 90
        5
102
RTVSPost2010Prop44ColorRGB
 90
      255
102
RTVSPost2010PropOp44
 70
     1
102
RTVSPost2010Prop45
280
     0
102
RTVSPost2010PropOp45
 70
     1
102
RTVSPost2010Prop46
 90
       50
102
RTVSPost2010PropOp46
 70
     1
102
RTVSPost2010Prop47
 90
       50
102
RTVSPost2010PropOp47
 70
     1
102
RTVSPost2010Prop48
 90
       50
102
RTVSPost2010PropOp48
 70
     1
102
RTVSPost2010Prop49
280
     0
102
RTVSPost2010PropOp49
 70
     1
102
RTVSPost2010Prop50
 90
       50
102
RTVSPost2010PropOp50
 70
     1
102
RTVSPost2010Prop51ColorIndex
 90
      256
102
RTVSPost2010Prop51ColorRGB
 90
-16777216
102
RTVSPost2010PropOp51
 70
     0
102
RTVSPost2010Prop52
140
1.0
102
RTVSPost2010PropOp52
 70
     0
102
RTVSPost2010Prop53
 90
        2
102
RTVSPost2010PropOp53
 70
     1
102
RTVSPost2010Prop54
  1
strokes_ogs.tif
102
RTVSPost2010PropOp54
 70
     1
102
RTVSPost2010Prop55
280
     0
102
RTVSPost2010PropOp55
 70
     1
102
RTVSPost2010Prop56
140
1.0
102
RTVSPost2010PropOp56
 70
     1
102
RTVSPost2010Prop57
140
1.0
102
RTVSPost2010PropOp57
 70
     1
  0
XRECORD
  5
A2
102
{ACAD_REACTORS
330
A1
102
}
330
A1
100
AcDbXrecord
280
     1
102
RTVSPropertyOp0
 70
     1
102
RTVSPropertyOp1
 70
     1
102
RTVSPropertyOp2
 70
     1
102
RTVSPropertyOp3
 70
     1
102
RTVSPropertyOp4
 70
     1
102
RTVSPropertyOp5
 70
     1
102
RTVSPropertyOp6
 70
     1
102
RTVSPropertyOp7
 70
     1
102
RTVSPropertyOp8
 70
     1
102
RTVSPropertyOp9
 70
     1
102
RTVSPropertyOp10
 70
     1
102
RTVSPropertyOp11
 70
     1
102
RTVSPropertyOp12
 70
     1
102
RTVSPropertyOp13
 70
     1
102
RTVSPropertyOp14
 70
     1
102
RTVSPropertyOp15
 70
     1
102
RTVSPropertyOp16
 70
     1
102
RTVSPropertyOp17
 70
     1
102
RTVSPropertyOp18
 70
     1
102
RTVSPropertyOp19
 70
     1
102
RTVSPropertyOp20
 70
     1
102
RTVSPropertyOp21
 70
     1
102
RTVSPropertyOp22
 70
     1
102
RTVSPropertyOp23
 70
     1
102
RTVSPropertyOp24
 70
     1
102
RTVSPropertyOp25
 70
     1
102
RTVSPropertyOp26
 70
     1
102
RTVSPropertyOp27
 70
     1
102
RTVSPropertyOp28
 70
     1
102
RTVSPropertyOp29
 70
     1
102
RTVSPropertyOp30
 70
     1
102
RTVSPropertyOp31
 70
     1
102
RTVSPropertyOp32
 70
     1
102
RTVSPropertyOp33
 70
     1
102
RTVSPropertyOp34
 70
     1
102
RTVSPropertyOp35
 70
     1
102
RTVSPropertyOp36
 70
     1
102
RTVSPropertyOp37
 70
     1
102
RTVSPropertyOp38
 70
     1
102
RTVSPropertyOp39
 70
     1
102
RTVSPropertyOp40
 70
     1
102
RTVSPropertyOp41
 70
     1
102
RTVSPropertyOp42
 70
     1
102
RTVSPropertyOp43
 70
     1
102
RTVSPropertyOp44
 70
     1
102
RTVSPropertyOp45
 70
     1
102
RTVSPropertyOp46
 70
     1
102
RTVSPropertyOp47
 70
     1
102
RTVSPropertyOp48
 70
     1
102
RTVSPropertyOp49
 70
     1
102
RTVSPropertyOp50
 70
     1
102
RTVSPropertyOp51
 70
     0
102
RTVSPropertyOp52
 70
     0
102
RTVSPropertyOp53
 70
     1
102
RTVSPropertyOp54
 70
     1
102
RTVSPropertyOp55
 70
     1
102
RTVSPropertyOp56
 70
     1
102
RTVSPropertyOp57
 70
     1
102
RTVSPost2010Prop28
280
     0
102
RTVSPost2010PropOp28
 70
     1
102
RTVSPost2010Prop29
280
     1
102
RTVSPost2010PropOp29
 70
     1
102
RTVSPost2010Prop30
280
     1
102
RTVSPost2010PropOp30
 70
     1
102
RTVSPost2010Prop31
280
     0
102
RTVSPost2010PropOp31
 70
     1
102
RTVSPost2010Prop32
280
     0
102
RTVSPost2010PropOp32
 70
     1
102
RTVSPost2010Prop33
280
     0
102
RTVSPost2010PropOp33
 70
     1
102
RTVSPost2010Prop34
280
     0
102
RTVSPost2010PropOp34
 70
     1
102
RTVSPost2010Prop35
280
     0
102
RTVSPost2010PropOp35
 70
     1
102
RTVSPost2010Prop36
280
     0
102
RTVSPost2010PropOp36
 70
     1
102
RTVSPost2010Prop37
 90
       50
102
RTVSPost2010PropOp37
 70
     1
102
RTVSPost2010Prop38
140
0.0
102
RTVSPost2010PropOp38
 70
     1
102
RTVSPost2010Prop39
140
1.0
102
RTVSPost2010PropOp39
 70
     1
102
RTVSPost2010Prop40
 90
        0
102
RTVSPost2010PropOp40
 70
     1
102
RTVSPost2010Prop41ColorIndex
 90
       18
102
RTVSPost2010Prop41ColorRGB
 90
        0
102
RTVSPost2010PropOp41
 70
     1
102
RTVSPost2010Prop42
 90
       50
102
RTVSPost2010PropOp42
 70
     1
102
RTVSPost2010Prop43
 90
        3
102
RTVSPost2010PropOp43
 70
     1
102
RTVSPost2010Prop44ColorIndex
 90
        5
102
RTVSPost2010Prop44ColorRGB
 90
      255
102
RTVSPost2010PropOp44
 70
     1
102
RTVSPost2010Prop45
280
     0
102
RTVSPost2010PropOp45
 70
     1
102
RTVSPost2010Prop46
 90
       50
102
RTVSPost2010PropOp46
 70
     1
102
RTVSPost2010Prop47
 90
       50
102
RTVSPost2010PropOp47
 70
     1
102
RTVSPost2010Prop48
 90
       50
102
RTVSPost2010PropOp48
 70
     1
102
RTVSPost2010Prop49
280
     0
102
RTVSPost2010PropOp49
 70
     1
102
RTVSPost2010Prop50
 90
       50
102
RTVSPost2010PropOp50
 70
     1
102
RTVSPost2010Prop51ColorIndex
 90
      256
102
RTVSPost2010Prop51ColorRGB
 90
-16777216
102
RTVSPost2010PropOp51
 70
     0
102
RTVSPost2010Prop52
140
1.0
102
RTVSPost2010PropOp52
 70
     0
102
RTVSPost2010Prop53
 90
        2
102
RTVSPost2010PropOp53
 70
     1
102
RTVSPost2010Prop54
  1
strokes_ogs.tif
102
RTVSPost2010PropOp54
 70
     1
102
RTVSPost2010Prop55
280
     0
102
RTVSPost2010PropOp55
 70
     1
102
RTVSPost2010Prop56
140
1.0
102
RTVSPost2010PropOp56
 70
     1
102
RTVSPost2010Prop57
140
1.0
102
RTVSPost2010PropOp57
 70
     1
  0
XRECORD
  5
B6
102
{ACAD_REACTORS
330
B5
102
}
330
B5
100
AcDbXrecord
280
     1
102
RTVSPropertyOp0
 70
     0
102
RTVSPropertyOp1
 70
     0
102
RTVSPropertyOp2
 70
     0
102
RTVSPropertyOp3
 70
     0
102
RTVSPropertyOp4
 70
     0
102
RTVSPropertyOp5
 70
     0
102
RTVSPropertyOp6
 70
     0
102
RTVSPropertyOp7
 70
     0
102
RTVSPropertyOp8
 70
     0
102
RTVSPropertyOp9
 70
     0
102
RTVSPropertyOp10
 70
     0
102
RTVSPropertyOp11
 70
     0
102
RTVSPropertyOp12
 70
     0
102
RTVSPropertyOp13
 70
     0
102
RTVSPropertyOp14
 70
     2
102
RTVSPropertyOp15
 70
     0
102
RTVSPropertyOp16
 70
     0
102
RTVSPropertyOp17
 70
     0
102
RTVSPropertyOp18
 70
     0
102
RTVSPropertyOp19
 70
     0
102
RTVSPropertyOp20
 70
     0
102
RTVSPropertyOp21
 70
     0
102
RTVSPropertyOp22
 70
     0
102
RTVSPropertyOp23
 70
     0
102
RTVSPropertyOp24
 70
     0
102
RTVSPropertyOp25
 70
     0
102
RTVSPropertyOp26
 70
     0
102
RTVSPropertyOp27
 70
     0
102
RTVSPropertyOp28
 70
     0
102
RTVSPropertyOp29
 70
     0
102
RTVSPropertyOp30
 70
     0
102
RTVSPropertyOp31
 70
     0
102
RTVSPropertyOp32
 70
     0
102
RTVSPropertyOp33
 70
     0
102
RTVSPropertyOp34
 70
     0
102
RTVSPropertyOp35
 70
     0
102
RTVSPropertyOp36
 70
     0
102
RTVSPropertyOp37
 70
     0
102
RTVSPropertyOp38
 70
     0
102
RTVSPropertyOp39
 70
     0
102
RTVSPropertyOp40
 70
     0
102
RTVSPropertyOp41
 70
     0
102
RTVSPropertyOp42
 70
     0
102
RTVSPropertyOp43
 70
     0
102
RTVSPropertyOp44
 70
     0
102
RTVSPropertyOp45
 70
     0
102
RTVSPropertyOp46
 70
     0
102
RTVSPropertyOp47
 70
     0
102
RTVSPropertyOp48
 70
     0
102
RTVSPropertyOp49
 70
     0
102
RTVSPropertyOp50
 70
     0
102
RTVSPropertyOp51
 70
     0
102
RTVSPropertyOp52
 70
     0
102
RTVSPropertyOp53
 70
     0
102
RTVSPropertyOp54
 70
     0
102
RTVSPropertyOp55
 70
     0
102
RTVSPropertyOp56
 70
     0
102
RTVSPropertyOp57
 70
     0
102
RTVSPost2010Prop28
280
     0
102
RTVSPost2010PropOp28
 70
     0
102
RTVSPost2010Prop29
280
     1
102
RTVSPost2010PropOp29
 70
     0
102
RTVSPost2010Prop30
280
     1
102
RTVSPost2010PropOp30
 70
     0
102
RTVSPost2010Prop31
280
     0
102
RTVSPost2010PropOp31
 70
     0
102
RTVSPost2010Prop32
280
     0
102
RTVSPost2010PropOp32
 70
     0
102
RTVSPost2010Prop33
280
     0
102
RTVSPost2010PropOp33
 70
     0
102
RTVSPost2010Prop34
280
     0
102
RTVSPost2010PropOp34
 70
     0
102
RTVSPost2010Prop35
280
     0
102
RTVSPost2010PropOp35
 70
     0
102
RTVSPost2010Prop36
280
     0
102
RTVSPost2010PropOp36
 70
     0
102
RTVSPost2010Prop37
 90
       50
102
RTVSPost2010PropOp37
 70
     0
102
RTVSPost2010Prop38
140
0.0
102
RTVSPost2010PropOp38
 70
     0
102
RTVSPost2010Prop39
140
1.0
102
RTVSPost2010PropOp39
 70
     0
102
RTVSPost2010Prop40
 90
        0
102
RTVSPost2010PropOp40
 70
     0
102
RTVSPost2010Prop41ColorIndex
 90
       18
102
RTVSPost2010Prop41ColorRGB
 90
        0
102
RTVSPost2010PropOp41
 70
     0
102
RTVSPost2010Prop42
 90
       50
102
RTVSPost2010PropOp42
 70
     0
102
RTVSPost2010Prop43
 90
        3
102
RTVSPost2010PropOp43
 70
     0
102
RTVSPost2010Prop44ColorIndex
 90
        5
102
RTVSPost2010Prop44ColorRGB
 90
      255
102
RTVSPost2010PropOp44
 70
     0
102
RTVSPost2010Prop45
280
     0
102
RTVSPost2010PropOp45
 70
     0
102
RTVSPost2010Prop46
 90
       50
102
RTVSPost2010PropOp46
 70
     0
102
RTVSPost2010Prop47
 90
       50
102
RTVSPost2010PropOp47
 70
     0
102
RTVSPost2010Prop48
 90
       50
102
RTVSPost2010PropOp48
 70
     0
102
RTVSPost2010Prop49
280
     0
102
RTVSPost2010PropOp49
 70
     0
102
RTVSPost2010Prop50
 90
       50
102
RTVSPost2010PropOp50
 70
     0
102
RTVSPost2010Prop51ColorIndex
 90
      256
102
RTVSPost2010Prop51ColorRGB
 90
-16777216
102
RTVSPost2010PropOp51
 70
     0
102
RTVSPost2010Prop52
140
1.0
102
RTVSPost2010PropOp52
 70
     0
102
RTVSPost2010Prop53
 90
        2
102
RTVSPost2010PropOp53
 70
     0
102
RTVSPost2010Prop54
  1
strokes_ogs.tif
102
RTVSPost2010PropOp54
 70
     0
102
RTVSPost2010Prop55
280
     0
102
RTVSPost2010PropOp55
 70
     0
102
RTVSPost2010Prop56
140
1.0
102
RTVSPost2010PropOp56
 70
     0
102
RTVSPost2010Prop57
140
1.0
102
RTVSPost2010PropOp57
 70
     0
  0
XRECORD
  5
B0
102
{ACAD_REACTORS
330
AF
102
}
330
AF
100
AcDbXrecord
280
     1
102
RTVSPropertyOp0
 70
     1
102
RTVSPropertyOp1
 70
     1
102
RTVSPropertyOp2
 70
     1
102
RTVSPropertyOp3
 70
     1
102
RTVSPropertyOp4
 70
     1
102
RTVSPropertyOp5
 70
     1
102
RTVSPropertyOp6
 70
     1
102
RTVSPropertyOp7
 70
     1
102
RTVSPropertyOp8
 70
     1
102
RTVSPropertyOp9
 70
     1
102
RTVSPropertyOp10
 70
     1
102
RTVSPropertyOp11
 70
     1
102
RTVSPropertyOp12
 70
     1
102
RTVSPropertyOp13
 70
     1
102
RTVSPropertyOp14
 70
     1
102
RTVSPropertyOp15
 70
     1
102
RTVSPropertyOp16
 70
     1
102
RTVSPropertyOp17
 70
     1
102
RTVSPropertyOp18
 70
     1
102
RTVSPropertyOp19
 70
     1
102
RTVSPropertyOp20
 70
     1
102
RTVSPropertyOp21
 70
     1
102
RTVSPropertyOp22
 70
     1
102
RTVSPropertyOp23
 70
     1
102
RTVSPropertyOp24
 70
     1
102
RTVSPropertyOp25
 70
     1
102
RTVSPropertyOp26
 70
     1
102
RTVSPropertyOp27
 70
     1
102
RTVSPropertyOp28
 70
     1
102
RTVSPropertyOp29
 70
     1
102
RTVSPropertyOp30
 70
     1
102
RTVSPropertyOp31
 70
     1
102
RTVSPropertyOp32
 70
     1
102
RTVSPropertyOp33
 70
     1
102
RTVSPropertyOp34
 70
     1
102
RTVSPropertyOp35
 70
     1
102
RTVSPropertyOp36
 70
     1
102
RTVSPropertyOp37
 70
     1
102
RTVSPropertyOp38
 70
     1
102
RTVSPropertyOp39
 70
     1
102
RTVSPropertyOp40
 70
     1
102
RTVSPropertyOp41
 70
     1
102
RTVSPropertyOp42
 70
     1
102
RTVSPropertyOp43
 70
     1
102
RTVSPropertyOp44
 70
     1
102
RTVSPropertyOp45
 70
     1
102
RTVSPropertyOp46
 70
     1
102
RTVSPropertyOp47
 70
     1
102
RTVSPropertyOp48
 70
     1
102
RTVSPropertyOp49
 70
     1
102
RTVSPropertyOp50
 70
     1
102
RTVSPropertyOp51
 70
     0
102
RTVSPropertyOp52
 70
     0
102
RTVSPropertyOp53
 70
     1
102
RTVSPropertyOp54
 70
     1
102
RTVSPropertyOp55
 70
     1
102
RTVSPropertyOp56
 70
     1
102
RTVSPropertyOp57
 70
     1
102
RTVSPost2010Prop28
280
     0
102
RTVSPost2010PropOp28
 70
     1
102
RTVSPost2010Prop29
280
     1
102
RTVSPost2010PropOp29
 70
     1
102
RTVSPost2010Prop30
280
     1
102
RTVSPost2010PropOp30
 70
     1
102
RTVSPost2010Prop31
280
     0
102
RTVSPost2010PropOp31
 70
     1
102
RTVSPost2010Prop32
280
     0
102
RTVSPost2010PropOp32
 70
     1
102
RTVSPost2010Prop33
280
     0
102
RTVSPost2010PropOp33
 70
     1
102
RTVSPost2010Prop34
280
     0
102
RTVSPost2010PropOp34
 70
     1
102
RTVSPost2010Prop35
280
     0
102
RTVSPost2010PropOp35
 70
     1
102
RTVSPost2010Prop36
280
     0
102
RTVSPost2010PropOp36
 70
     1
102
RTVSPost2010Prop37
 90
       50
102
RTVSPost2010PropOp37
 70
     1
102
RTVSPost2010Prop38
140
0.0
102
RTVSPost2010PropOp38
 70
     1
102
RTVSPost2010Prop39
140
1.0
102
RTVSPost2010PropOp39
 70
     1
102
RTVSPost2010Prop40
 90
        0
102
RTVSPost2010PropOp40
 70
     1
102
RTVSPost2010Prop41ColorIndex
 90
       18
102
RTVSPost2010Prop41ColorRGB
 90
        0
102
RTVSPost2010PropOp41
 70
     1
102
RTVSPost2010Prop42
 90
       50
102
RTVSPost2010PropOp42
 70
     1
102
RTVSPost2010Prop43
 90
        3
102
RTVSPost2010PropOp43
 70
     1
102
RTVSPost2010Prop44ColorIndex
 90
        5
102
RTVSPost2010Prop44ColorRGB
 90
      255
102
RTVSPost2010PropOp44
 70
     1
102
RTVSPost2010Prop45
280
     0
102
RTVSPost2010PropOp45
 70
     1
102
RTVSPost2010Prop46
 90
       50
102
RTVSPost2010PropOp46
 70
     1
102
RTVSPost2010Prop47
 90
       50
102
RTVSPost2010PropOp47
 70
     1
102
RTVSPost2010Prop48
 90
       50
102
RTVSPost2010PropOp48
 70
     1
102
RTVSPost2010Prop49
280
     0
102
RTVSPost2010PropOp49
 70
     1
102
RTVSPost2010Prop50
 90
       50
102
RTVSPost2010PropOp50
 70
     1
102
RTVSPost2010Prop51ColorIndex
 90
      256
102
RTVSPost2010Prop51ColorRGB
 90
-16777216
102
RTVSPost2010PropOp51
 70
     0
102
RTVSPost2010Prop52
140
1.0
102
RTVSPost2010PropOp52
 70
     0
102
RTVSPost2010Prop53
 90
        2
102
RTVSPost2010PropOp53
 70
     1
102
RTVSPost2010Prop54
  1
strokes_ogs.tif
102
RTVSPost2010PropOp54
 70
     1
102
RTVSPost2010Prop55
280
     0
102
RTVSPost2010PropOp55
 70
     1
102
RTVSPost2010Prop56
140
1.0
102
RTVSPost2010PropOp56
 70
     1
102
RTVSPost2010Prop57
140
1.0
102
RTVSPost2010PropOp57
 70
     1
  0
XRECORD
  5
B8
102
{ACAD_REACTORS
330
B7
102
}
330
B7
100
AcDbXrecord
280
     1
102
RTVSPropertyOp0
 70
     0
102
RTVSPropertyOp1
 70
     0
102
RTVSPropertyOp2
 70
     0
102
RTVSPropertyOp3
 70
     0
102
RTVSPropertyOp4
 70
     0
102
RTVSPropertyOp5
 70
     0
102
RTVSPropertyOp6
 70
     0
102
RTVSPropertyOp7
 70
     0
102
RTVSPropertyOp8
 70
     0
102
RTVSPropertyOp9
 70
     0
102
RTVSPropertyOp10
 70
     0
102
RTVSPropertyOp11
 70
     0
102
RTVSPropertyOp12
 70
     0
102
RTVSPropertyOp13
 70
     0
102
RTVSPropertyOp14
 70
     2
102
RTVSPropertyOp15
 70
     0
102
RTVSPropertyOp16
 70
     0
102
RTVSPropertyOp17
 70
     0
102
RTVSPropertyOp18
 70
     0
102
RTVSPropertyOp19
 70
     0
102
RTVSPropertyOp20
 70
     0
102
RTVSPropertyOp21
 70
     0
102
RTVSPropertyOp22
 70
     0
102
RTVSPropertyOp23
 70
     0
102
RTVSPropertyOp24
 70
     0
102
RTVSPropertyOp25
 70
     0
102
RTVSPropertyOp26
 70
     0
102
RTVSPropertyOp27
 70
     0
102
RTVSPropertyOp28
 70
     0
102
RTVSPropertyOp29
 70
     0
102
RTVSPropertyOp30
 70
     0
102
RTVSPropertyOp31
 70
     0
102
RTVSPropertyOp32
 70
     0
102
RTVSPropertyOp33
 70
     0
102
RTVSPropertyOp34
 70
     0
102
RTVSPropertyOp35
 70
     0
102
RTVSPropertyOp36
 70
     0
102
RTVSPropertyOp37
 70
     0
102
RTVSPropertyOp38
 70
     0
102
RTVSPropertyOp39
 70
     0
102
RTVSPropertyOp40
 70
     0
102
RTVSPropertyOp41
 70
     0
102
RTVSPropertyOp42
 70
     0
102
RTVSPropertyOp43
 70
     0
102
RTVSPropertyOp44
 70
     0
102
RTVSPropertyOp45
 70
     0
102
RTVSPropertyOp46
 70
     0
102
RTVSPropertyOp47
 70
     0
102
RTVSPropertyOp48
 70
     0
102
RTVSPropertyOp49
 70
     0
102
RTVSPropertyOp50
 70
     0
102
RTVSPropertyOp51
 70
     0
102
RTVSPropertyOp52
 70
     0
102
RTVSPropertyOp53
 70
     0
102
RTVSPropertyOp54
 70
     0
102
RTVSPropertyOp55
 70
     0
102
RTVSPropertyOp56
 70
     0
102
RTVSPropertyOp57
 70
     0
102
RTVSPost2010Prop28
280
     0
102
RTVSPost2010PropOp28
 70
     0
102
RTVSPost2010Prop29
280
     1
102
RTVSPost2010PropOp29
 70
     0
102
RTVSPost2010Prop30
280
     1
102
RTVSPost2010PropOp30
 70
     0
102
RTVSPost2010Prop31
280
     0
102
RTVSPost2010PropOp31
 70
     0
102
RTVSPost2010Prop32
280
     0
102
RTVSPost2010PropOp32
 70
     0
102
RTVSPost2010Prop33
280
     0
102
RTVSPost2010PropOp33
 70
     0
102
RTVSPost2010Prop34
280
     0
102
RTVSPost2010PropOp34
 70
     0
102
RTVSPost2010Prop35
280
     0
102
RTVSPost2010PropOp35
 70
     0
102
RTVSPost2010Prop36
280
     0
102
RTVSPost2010PropOp36
 70
     0
102
RTVSPost2010Prop37
 90
       50
102
RTVSPost2010PropOp37
 70
     0
102
RTVSPost2010Prop38
140
0.0
102
RTVSPost2010PropOp38
 70
     0
102
RTVSPost2010Prop39
140
1.0
102
RTVSPost2010PropOp39
 70
     0
102
RTVSPost2010Prop40
 90
        0
102
RTVSPost2010PropOp40
 70
     0
102
RTVSPost2010Prop41ColorIndex
 90
       18
102
RTVSPost2010Prop41ColorRGB
 90
        0
102
RTVSPost2010PropOp41
 70
     0
102
RTVSPost2010Prop42
 90
       50
102
RTVSPost2010PropOp42
 70
     0
102
RTVSPost2010Prop43
 90
        3
102
RTVSPost2010PropOp43
 70
     0
102
RTVSPost2010Prop44ColorIndex
 90
        5
102
RTVSPost2010Prop44ColorRGB
 90
      255
102
RTVSPost2010PropOp44
 70
     0
102
RTVSPost2010Prop45
280
     0
102
RTVSPost2010PropOp45
 70
     0
102
RTVSPost2010Prop46
 90
       50
102
RTVSPost2010PropOp46
 70
     0
102
RTVSPost2010Prop47
 90
       50
102
RTVSPost2010PropOp47
 70
     0
102
RTVSPost2010Prop48
 90
       50
102
RTVSPost2010PropOp48
 70
     0
102
RTVSPost2010Prop49
280
     0
102
RTVSPost2010PropOp49
 70
     0
102
RTVSPost2010Prop50
 90
       50
102
RTVSPost2010PropOp50
 70
     0
102
RTVSPost2010Prop51ColorIndex
 90
      256
102
RTVSPost2010Prop51ColorRGB
 90
-16777216
102
RTVSPost2010PropOp51
 70
     0
102
RTVSPost2010Prop52
140
1.0
102
RTVSPost2010PropOp52
 70
     0
102
RTVSPost2010Prop53
 90
        2
102
RTVSPost2010PropOp53
 70
     0
102
RTVSPost2010Prop54
  1
strokes_ogs.tif
102
RTVSPost2010PropOp54
 70
     0
102
RTVSPost2010Prop55
280
     0
102
RTVSPost2010PropOp55
 70
     0
102
RTVSPost2010Prop56
140
1.0
102
RTVSPost2010PropOp56
 70
     0
102
RTVSPost2010Prop57
140
1.0
102
RTVSPost2010PropOp57
 70
     0
  0
XRECORD
  5
A6
102
{ACAD_REACTORS
330
A5
102
}
330
A5
100
AcDbXrecord
280
     1
102
RTVSPropertyOp0
 70
     1
102
RTVSPropertyOp1
 70
     1
102
RTVSPropertyOp2
 70
     1
102
RTVSPropertyOp3
 70
     1
102
RTVSPropertyOp4
 70
     1
102
RTVSPropertyOp5
 70
     1
102
RTVSPropertyOp6
 70
     1
102
RTVSPropertyOp7
 70
     1
102
RTVSPropertyOp8
 70
     1
102
RTVSPropertyOp9
 70
     1
102
RTVSPropertyOp10
 70
     1
102
RTVSPropertyOp11
 70
     1
102
RTVSPropertyOp12
 70
     1
102
RTVSPropertyOp13
 70
     1
102
RTVSPropertyOp14
 70
     1
102
RTVSPropertyOp15
 70
     1
102
RTVSPropertyOp16
 70
     1
102
RTVSPropertyOp17
 70
     1
102
RTVSPropertyOp18
 70
     1
102
RTVSPropertyOp19
 70
     1
102
RTVSPropertyOp20
 70
     1
102
RTVSPropertyOp21
 70
     1
102
RTVSPropertyOp22
 70
     1
102
RTVSPropertyOp23
 70
     1
102
RTVSPropertyOp24
 70
     1
102
RTVSPropertyOp25
 70
     1
102
RTVSPropertyOp26
 70
     1
102
RTVSPropertyOp27
 70
     1
102
RTVSPropertyOp28
 70
     1
102
RTVSPropertyOp29
 70
     1
102
RTVSPropertyOp30
 70
     1
102
RTVSPropertyOp31
 70
     1
102
RTVSPropertyOp32
 70
     1
102
RTVSPropertyOp33
 70
     1
102
RTVSPropertyOp34
 70
     1
102
RTVSPropertyOp35
 70
     1
102
RTVSPropertyOp36
 70
     1
102
RTVSPropertyOp37
 70
     1
102
RTVSPropertyOp38
 70
     1
102
RTVSPropertyOp39
 70
     1
102
RTVSPropertyOp40
 70
     1
102
RTVSPropertyOp41
 70
     1
102
RTVSPropertyOp42
 70
     1
102
RTVSPropertyOp43
 70
     1
102
RTVSPropertyOp44
 70
     1
102
RTVSPropertyOp45
 70
     1
102
RTVSPropertyOp46
 70
     1
102
RTVSPropertyOp47
 70
     1
102
RTVSPropertyOp48
 70
     1
102
RTVSPropertyOp49
 70
     1
102
RTVSPropertyOp50
 70
     1
102
RTVSPropertyOp51
 70
     0
102
RTVSPropertyOp52
 70
     0
102
RTVSPropertyOp53
 70
     1
102
RTVSPropertyOp54
 70
     1
102
RTVSPropertyOp55
 70
     1
102
RTVSPropertyOp56
 70
     1
102
RTVSPropertyOp57
 70
     1
102
RTVSPost2010Prop28
280
     0
102
RTVSPost2010PropOp28
 70
     1
102
RTVSPost2010Prop29
280
     1
102
RTVSPost2010PropOp29
 70
     1
102
RTVSPost2010Prop30
280
     1
102
RTVSPost2010PropOp30
 70
     1
102
RTVSPost2010Prop31
280
     0
102
RTVSPost2010PropOp31
 70
     1
102
RTVSPost2010Prop32
280
     0
102
RTVSPost2010PropOp32
 70
     1
102
RTVSPost2010Prop33
280
     0
102
RTVSPost2010PropOp33
 70
     1
102
RTVSPost2010Prop34
280
     0
102
RTVSPost2010PropOp34
 70
     1
102
RTVSPost2010Prop35
280
     0
102
RTVSPost2010PropOp35
 70
     1
102
RTVSPost2010Prop36
280
     0
102
RTVSPost2010PropOp36
 70
     1
102
RTVSPost2010Prop37
 90
       50
102
RTVSPost2010PropOp37
 70
     1
102
RTVSPost2010Prop38
140
0.0
102
RTVSPost2010PropOp38
 70
     1
102
RTVSPost2010Prop39
140
1.0
102
RTVSPost2010PropOp39
 70
     1
102
RTVSPost2010Prop40
 90
        0
102
RTVSPost2010PropOp40
 70
     1
102
RTVSPost2010Prop41ColorIndex
 90
       18
102
RTVSPost2010Prop41ColorRGB
 90
        0
102
RTVSPost2010PropOp41
 70
     1
102
RTVSPost2010Prop42
 90
       50
102
RTVSPost2010PropOp42
 70
     1
102
RTVSPost2010Prop43
 90
        3
102
RTVSPost2010PropOp43
 70
     1
102
RTVSPost2010Prop44ColorIndex
 90
        5
102
RTVSPost2010Prop44ColorRGB
 90
      255
102
RTVSPost2010PropOp44
 70
     1
102
RTVSPost2010Prop45
280
     0
102
RTVSPost2010PropOp45
 70
     1
102
RTVSPost2010Prop46
 90
       50
102
RTVSPost2010PropOp46
 70
     1
102
RTVSPost2010Prop47
 90
       50
102
RTVSPost2010PropOp47
 70
     1
102
RTVSPost2010Prop48
 90
       50
102
RTVSPost2010PropOp48
 70
     1
102
RTVSPost2010Prop49
280
     0
102
RTVSPost2010PropOp49
 70
     1
102
RTVSPost2010Prop50
 90
       50
102
RTVSPost2010PropOp50
 70
     1
102
RTVSPost2010Prop51ColorIndex
 90
      256
102
RTVSPost2010Prop51ColorRGB
 90
-16777216
102
RTVSPost2010PropOp51
 70
     0
102
RTVSPost2010Prop52
140
1.0
102
RTVSPost2010PropOp52
 70
     0
102
RTVSPost2010Prop53
 90
        2
102
RTVSPost2010PropOp53
 70
     1
102
RTVSPost2010Prop54
  1
strokes_ogs.tif
102
RTVSPost2010PropOp54
 70
     1
102
RTVSPost2010Prop55
280
     0
102
RTVSPost2010PropOp55
 70
     1
102
RTVSPost2010Prop56
140
1.0
102
RTVSPost2010PropOp56
 70
     1
102
RTVSPost2010Prop57
140
1.0
102
RTVSPost2010PropOp57
 70
     1
  0
XRECORD
  5
C4
102
{ACAD_REACTORS
330
C3
102
}
330
C3
100
AcDbXrecord
280
     1
102
RTVSPropertyOp0
 70
     1
102
RTVSPropertyOp1
 70
     1
102
RTVSPropertyOp2
 70
     1
102
RTVSPropertyOp3
 70
     1
102
RTVSPropertyOp4
 70
     1
102
RTVSPropertyOp5
 70
     1
102
RTVSPropertyOp6
 70
     1
102
RTVSPropertyOp7
 70
     1
102
RTVSPropertyOp8
 70
     1
102
RTVSPropertyOp9
 70
     1
102
RTVSPropertyOp10
 70
     1
102
RTVSPropertyOp11
 70
     1
102
RTVSPropertyOp12
 70
     1
102
RTVSPropertyOp13
 70
     1
102
RTVSPropertyOp14
 70
     1
102
RTVSPropertyOp15
 70
     1
102
RTVSPropertyOp16
 70
     1
102
RTVSPropertyOp17
 70
     1
102
RTVSPropertyOp18
 70
     1
102
RTVSPropertyOp19
 70
     1
102
RTVSPropertyOp20
 70
     1
102
RTVSPropertyOp21
 70
     1
102
RTVSPropertyOp22
 70
     1
102
RTVSPropertyOp23
 70
     1
102
RTVSPropertyOp24
 70
     1
102
RTVSPropertyOp25
 70
     1
102
RTVSPropertyOp26
 70
     1
102
RTVSPropertyOp27
 70
     1
102
RTVSPropertyOp28
 70
     1
102
RTVSPropertyOp29
 70
     1
102
RTVSPropertyOp30
 70
     1
102
RTVSPropertyOp31
 70
     1
102
RTVSPropertyOp32
 70
     1
102
RTVSPropertyOp33
 70
     1
102
RTVSPropertyOp34
 70
     1
102
RTVSPropertyOp35
 70
     1
102
RTVSPropertyOp36
 70
     1
102
RTVSPropertyOp37
 70
     1
102
RTVSPropertyOp38
 70
     1
102
RTVSPropertyOp39
 70
     1
102
RTVSPropertyOp40
 70
     1
102
RTVSPropertyOp41
 70
     1
102
RTVSPropertyOp42
 70
     1
102
RTVSPropertyOp43
 70
     1
102
RTVSPropertyOp44
 70
     1
102
RTVSPropertyOp45
 70
     1
102
RTVSPropertyOp46
 70
     1
102
RTVSPropertyOp47
 70
     1
102
RTVSPropertyOp48
 70
     1
102
RTVSPropertyOp49
 70
     1
102
RTVSPropertyOp50
 70
     1
102
RTVSPropertyOp51
 70
     0
102
RTVSPropertyOp52
 70
     0
102
RTVSPropertyOp53
 70
     1
102
RTVSPropertyOp54
 70
     1
102
RTVSPropertyOp55
 70
     1
102
RTVSPropertyOp56
 70
     1
102
RTVSPropertyOp57
 70
     1
102
RTVSPost2010Prop28
280
     0
102
RTVSPost2010PropOp28
 70
     1
102
RTVSPost2010Prop29
280
     1
102
RTVSPost2010PropOp29
 70
     1
102
RTVSPost2010Prop30
280
     1
102
RTVSPost2010PropOp30
 70
     1
102
RTVSPost2010Prop31
280
     0
102
RTVSPost2010PropOp31
 70
     1
102
RTVSPost2010Prop32
280
     0
102
RTVSPost2010PropOp32
 70
     1
102
RTVSPost2010Prop33
280
     0
102
RTVSPost2010PropOp33
 70
     1
102
RTVSPost2010Prop34
280
     0
102
RTVSPost2010PropOp34
 70
     1
102
RTVSPost2010Prop35
280
     0
102
RTVSPost2010PropOp35
 70
     1
102
RTVSPost2010Prop36
280
     0
102
RTVSPost2010PropOp36
 70
     1
102
RTVSPost2010Prop37
 90
       50
102
RTVSPost2010PropOp37
 70
     1
102
RTVSPost2010Prop38
140
0.0
102
RTVSPost2010PropOp38
 70
     1
102
RTVSPost2010Prop39
140
1.0
102
RTVSPost2010PropOp39
 70
     1
102
RTVSPost2010Prop40
 90
        0
102
RTVSPost2010PropOp40
 70
     1
102
RTVSPost2010Prop41ColorIndex
 90
       18
102
RTVSPost2010Prop41ColorRGB
 90
        0
102
RTVSPost2010PropOp41
 70
     1
102
RTVSPost2010Prop42
 90
       50
102
RTVSPost2010PropOp42
 70
     1
102
RTVSPost2010Prop43
 90
        3
102
RTVSPost2010PropOp43
 70
     1
102
RTVSPost2010Prop44ColorIndex
 90
        5
102
RTVSPost2010Prop44ColorRGB
 90
      255
102
RTVSPost2010PropOp44
 70
     1
102
RTVSPost2010Prop45
280
     0
102
RTVSPost2010PropOp45
 70
     1
102
RTVSPost2010Prop46
 90
       50
102
RTVSPost2010PropOp46
 70
     1
102
RTVSPost2010Prop47
 90
       50
102
RTVSPost2010PropOp47
 70
     1
102
RTVSPost2010Prop48
 90
       50
102
RTVSPost2010PropOp48
 70
     1
102
RTVSPost2010Prop49
280
     0
102
RTVSPost2010PropOp49
 70
     1
102
RTVSPost2010Prop50
 90
       50
102
RTVSPost2010PropOp50
 70
     1
102
RTVSPost2010Prop51ColorIndex
 90
      256
102
RTVSPost2010Prop51ColorRGB
 90
-16777216
102
RTVSPost2010PropOp51
 70
     0
102
RTVSPost2010Prop52
140
1.0
102
RTVSPost2010PropOp52
 70
     0
102
RTVSPost2010Prop53
 90
        2
102
RTVSPost2010PropOp53
 70
     1
102
RTVSPost2010Prop54
  1
strokes_ogs.tif
102
RTVSPost2010PropOp54
 70
     1
102
RTVSPost2010Prop55
280
     0
102
RTVSPost2010PropOp55
 70
     1
102
RTVSPost2010Prop56
140
1.0
102
RTVSPost2010PropOp56
 70
     1
102
RTVSPost2010Prop57
140
1.0
102
RTVSPost2010PropOp57
 70
     1
  0
XRECORD
  5
C2
102
{ACAD_REACTORS
330
C1
102
}
330
C1
100
AcDbXrecord
280
     1
102
RTVSPropertyOp0
 70
     1
102
RTVSPropertyOp1
 70
     1
102
RTVSPropertyOp2
 70
     1
102
RTVSPropertyOp3
 70
     1
102
RTVSPropertyOp4
 70
     1
102
RTVSPropertyOp5
 70
     1
102
RTVSPropertyOp6
 70
     1
102
RTVSPropertyOp7
 70
     1
102
RTVSPropertyOp8
 70
     1
102
RTVSPropertyOp9
 70
     1
102
RTVSPropertyOp10
 70
     1
102
RTVSPropertyOp11
 70
     1
102
RTVSPropertyOp12
 70
     1
102
RTVSPropertyOp13
 70
     1
102
RTVSPropertyOp14
 70
     1
102
RTVSPropertyOp15
 70
     1
102
RTVSPropertyOp16
 70
     1
102
RTVSPropertyOp17
 70
     1
102
RTVSPropertyOp18
 70
     1
102
RTVSPropertyOp19
 70
     1
102
RTVSPropertyOp20
 70
     1
102
RTVSPropertyOp21
 70
     1
102
RTVSPropertyOp22
 70
     1
102
RTVSPropertyOp23
 70
     1
102
RTVSPropertyOp24
 70
     1
102
RTVSPropertyOp25
 70
     1
102
RTVSPropertyOp26
 70
     1
102
RTVSPropertyOp27
 70
     1
102
RTVSPropertyOp28
 70
     1
102
RTVSPropertyOp29
 70
     1
102
RTVSPropertyOp30
 70
     1
102
RTVSPropertyOp31
 70
     1
102
RTVSPropertyOp32
 70
     1
102
RTVSPropertyOp33
 70
     1
102
RTVSPropertyOp34
 70
     1
102
RTVSPropertyOp35
 70
     1
102
RTVSPropertyOp36
 70
     1
102
RTVSPropertyOp37
 70
     1
102
RTVSPropertyOp38
 70
     1
102
RTVSPropertyOp39
 70
     1
102
RTVSPropertyOp40
 70
     1
102
RTVSPropertyOp41
 70
     1
102
RTVSPropertyOp42
 70
     1
102
RTVSPropertyOp43
 70
     1
102
RTVSPropertyOp44
 70
     1
102
RTVSPropertyOp45
 70
     1
102
RTVSPropertyOp46
 70
     1
102
RTVSPropertyOp47
 70
     1
102
RTVSPropertyOp48
 70
     1
102
RTVSPropertyOp49
 70
     1
102
RTVSPropertyOp50
 70
     1
102
RTVSPropertyOp51
 70
     0
102
RTVSPropertyOp52
 70
     0
102
RTVSPropertyOp53
 70
     1
102
RTVSPropertyOp54
 70
     1
102
RTVSPropertyOp55
 70
     1
102
RTVSPropertyOp56
 70
     1
102
RTVSPropertyOp57
 70
     1
102
RTVSPost2010Prop28
280
     0
102
RTVSPost2010PropOp28
 70
     1
102
RTVSPost2010Prop29
280
     1
102
RTVSPost2010PropOp29
 70
     1
102
RTVSPost2010Prop30
280
     1
102
RTVSPost2010PropOp30
 70
     1
102
RTVSPost2010Prop31
280
     0
102
RTVSPost2010PropOp31
 70
     1
102
RTVSPost2010Prop32
280
     0
102
RTVSPost2010PropOp32
 70
     1
102
RTVSPost2010Prop33
280
     0
102
RTVSPost2010PropOp33
 70
     1
102
RTVSPost2010Prop34
280
     0
102
RTVSPost2010PropOp34
 70
     1
102
RTVSPost2010Prop35
280
     0
102
RTVSPost2010PropOp35
 70
     1
102
RTVSPost2010Prop36
280
     0
102
RTVSPost2010PropOp36
 70
     1
102
RTVSPost2010Prop37
 90
       50
102
RTVSPost2010PropOp37
 70
     1
102
RTVSPost2010Prop38
140
0.0
102
RTVSPost2010PropOp38
 70
     1
102
RTVSPost2010Prop39
140
1.0
102
RTVSPost2010PropOp39
 70
     1
102
RTVSPost2010Prop40
 90
        0
102
RTVSPost2010PropOp40
 70
     1
102
RTVSPost2010Prop41ColorIndex
 90
       18
102
RTVSPost2010Prop41ColorRGB
 90
        0
102
RTVSPost2010PropOp41
 70
     1
102
RTVSPost2010Prop42
 90
       50
102
RTVSPost2010PropOp42
 70
     1
102
RTVSPost2010Prop43
 90
        3
102
RTVSPost2010PropOp43
 70
     1
102
RTVSPost2010Prop44ColorIndex
 90
        5
102
RTVSPost2010Prop44ColorRGB
 90
      255
102
RTVSPost2010PropOp44
 70
     1
102
RTVSPost2010Prop45
280
     0
102
RTVSPost2010PropOp45
 70
     1
102
RTVSPost2010Prop46
 90
       50
102
RTVSPost2010PropOp46
 70
     1
102
RTVSPost2010Prop47
 90
       50
102
RTVSPost2010PropOp47
 70
     1
102
RTVSPost2010Prop48
 90
       50
102
RTVSPost2010PropOp48
 70
     1
102
RTVSPost2010Prop49
280
     0
102
RTVSPost2010PropOp49
 70
     1
102
RTVSPost2010Prop50
 90
       50
102
RTVSPost2010PropOp50
 70
     1
102
RTVSPost2010Prop51ColorIndex
 90
      256
102
RTVSPost2010Prop51ColorRGB
 90
-16777216
102
RTVSPost2010PropOp51
 70
     0
102
RTVSPost2010Prop52
140
1.0
102
RTVSPost2010PropOp52
 70
     0
102
RTVSPost2010Prop53
 90
        2
102
RTVSPost2010PropOp53
 70
     1
102
RTVSPost2010Prop54
  1
strokes_ogs.tif
102
RTVSPost2010PropOp54
 70
     1
102
RTVSPost2010Prop55
280
     0
102
RTVSPost2010PropOp55
 70
     1
102
RTVSPost2010Prop56
140
1.0
102
RTVSPost2010PropOp56
 70
     1
102
RTVSPost2010Prop57
140
1.0
102
RTVSPost2010PropOp57
 70
     1
  0
XRECORD
  5
BC
102
{ACAD_REACTORS
330
BB
102
}
330
BB
100
AcDbXrecord
280
     1
102
RTVSPropertyOp0
 70
     1
102
RTVSPropertyOp1
 70
     1
102
RTVSPropertyOp2
 70
     1
102
RTVSPropertyOp3
 70
     1
102
RTVSPropertyOp4
 70
     1
102
RTVSPropertyOp5
 70
     1
102
RTVSPropertyOp6
 70
     1
102
RTVSPropertyOp7
 70
     1
102
RTVSPropertyOp8
 70
     1
102
RTVSPropertyOp9
 70
     1
102
RTVSPropertyOp10
 70
     1
102
RTVSPropertyOp11
 70
     1
102
RTVSPropertyOp12
 70
     1
102
RTVSPropertyOp13
 70
     1
102
RTVSPropertyOp14
 70
     1
102
RTVSPropertyOp15
 70
     1
102
RTVSPropertyOp16
 70
     1
102
RTVSPropertyOp17
 70
     1
102
RTVSPropertyOp18
 70
     1
102
RTVSPropertyOp19
 70
     1
102
RTVSPropertyOp20
 70
     1
102
RTVSPropertyOp21
 70
     1
102
RTVSPropertyOp22
 70
     1
102
RTVSPropertyOp23
 70
     1
102
RTVSPropertyOp24
 70
     1
102
RTVSPropertyOp25
 70
     1
102
RTVSPropertyOp26
 70
     1
102
RTVSPropertyOp27
 70
     1
102
RTVSPropertyOp28
 70
     1
102
RTVSPropertyOp29
 70
     1
102
RTVSPropertyOp30
 70
     1
102
RTVSPropertyOp31
 70
     1
102
RTVSPropertyOp32
 70
     1
102
RTVSPropertyOp33
 70
     1
102
RTVSPropertyOp34
 70
     1
102
RTVSPropertyOp35
 70
     1
102
RTVSPropertyOp36
 70
     1
102
RTVSPropertyOp37
 70
     1
102
RTVSPropertyOp38
 70
     1
102
RTVSPropertyOp39
 70
     1
102
RTVSPropertyOp40
 70
     1
102
RTVSPropertyOp41
 70
     1
102
RTVSPropertyOp42
 70
     1
102
RTVSPropertyOp43
 70
     1
102
RTVSPropertyOp44
 70
     1
102
RTVSPropertyOp45
 70
     1
102
RTVSPropertyOp46
 70
     1
102
RTVSPropertyOp47
 70
     1
102
RTVSPropertyOp48
 70
     1
102
RTVSPropertyOp49
 70
     1
102
RTVSPropertyOp50
 70
     1
102
RTVSPropertyOp51
 70
     0
102
RTVSPropertyOp52
 70
     0
102
RTVSPropertyOp53
 70
     1
102
RTVSPropertyOp54
 70
     1
102
RTVSPropertyOp55
 70
     1
102
RTVSPropertyOp56
 70
     1
102
RTVSPropertyOp57
 70
     1
102
RTVSPost2010Prop28
280
     0
102
RTVSPost2010PropOp28
 70
     1
102
RTVSPost2010Prop29
280
     1
102
RTVSPost2010PropOp29
 70
     1
102
RTVSPost2010Prop30
280
     1
102
RTVSPost2010PropOp30
 70
     1
102
RTVSPost2010Prop31
280
     0
102
RTVSPost2010PropOp31
 70
     1
102
RTVSPost2010Prop32
280
     0
102
RTVSPost2010PropOp32
 70
     1
102
RTVSPost2010Prop33
280
     0
102
RTVSPost2010PropOp33
 70
     1
102
RTVSPost2010Prop34
280
     0
102
RTVSPost2010PropOp34
 70
     1
102
RTVSPost2010Prop35
280
     0
102
RTVSPost2010PropOp35
 70
     1
102
RTVSPost2010Prop36
280
     0
102
RTVSPost2010PropOp36
 70
     1
102
RTVSPost2010Prop37
 90
       50
102
RTVSPost2010PropOp37
 70
     1
102
RTVSPost2010Prop38
140
0.0
102
RTVSPost2010PropOp38
 70
     1
102
RTVSPost2010Prop39
140
1.0
102
RTVSPost2010PropOp39
 70
     1
102
RTVSPost2010Prop40
 90
        0
102
RTVSPost2010PropOp40
 70
     1
102
RTVSPost2010Prop41ColorIndex
 90
       18
102
RTVSPost2010Prop41ColorRGB
 90
        0
102
RTVSPost2010PropOp41
 70
     1
102
RTVSPost2010Prop42
 90
       50
102
RTVSPost2010PropOp42
 70
     1
102
RTVSPost2010Prop43
 90
        3
102
RTVSPost2010PropOp43
 70
     1
102
RTVSPost2010Prop44ColorIndex
 90
        5
102
RTVSPost2010Prop44ColorRGB
 90
      255
102
RTVSPost2010PropOp44
 70
     1
102
RTVSPost2010Prop45
280
     0
102
RTVSPost2010PropOp45
 70
     1
102
RTVSPost2010Prop46
 90
       50
102
RTVSPost2010PropOp46
 70
     1
102
RTVSPost2010Prop47
 90
       50
102
RTVSPost2010PropOp47
 70
     1
102
RTVSPost2010Prop48
 90
       50
102
RTVSPost2010PropOp48
 70
     1
102
RTVSPost2010Prop49
280
     0
102
RTVSPost2010PropOp49
 70
     1
102
RTVSPost2010Prop50
 90
       50
102
RTVSPost2010PropOp50
 70
     1
102
RTVSPost2010Prop51ColorIndex
 90
      256
102
RTVSPost2010Prop51ColorRGB
 90
-16777216
102
RTVSPost2010PropOp51
 70
     0
102
RTVSPost2010Prop52
140
1.0
102
RTVSPost2010PropOp52
 70
     0
102
RTVSPost2010Prop53
 90
        2
102
RTVSPost2010PropOp53
 70
     1
102
RTVSPost2010Prop54
  1
strokes_ogs.tif
102
RTVSPost2010PropOp54
 70
     1
102
RTVSPost2010Prop55
280
     0
102
RTVSPost2010PropOp55
 70
     1
102
RTVSPost2010Prop56
140
1.0
102
RTVSPost2010PropOp56
 70
     1
102
RTVSPost2010Prop57
140
1.0
102
RTVSPost2010PropOp57
 70
     1
  0
XRECORD
  5
BE
102
{ACAD_REACTORS
330
BD
102
}
330
BD
100
AcDbXrecord
280
     1
102
RTVSPropertyOp0
 70
     1
102
RTVSPropertyOp1
 70
     1
102
RTVSPropertyOp2
 70
     1
102
RTVSPropertyOp3
 70
     1
102
RTVSPropertyOp4
 70
     1
102
RTVSPropertyOp5
 70
     1
102
RTVSPropertyOp6
 70
     1
102
RTVSPropertyOp7
 70
     1
102
RTVSPropertyOp8
 70
     1
102
RTVSPropertyOp9
 70
     1
102
RTVSPropertyOp10
 70
     1
102
RTVSPropertyOp11
 70
     1
102
RTVSPropertyOp12
 70
     1
102
RTVSPropertyOp13
 70
     1
102
RTVSPropertyOp14
 70
     1
102
RTVSPropertyOp15
 70
     1
102
RTVSPropertyOp16
 70
     1
102
RTVSPropertyOp17
 70
     1
102
RTVSPropertyOp18
 70
     1
102
RTVSPropertyOp19
 70
     1
102
RTVSPropertyOp20
 70
     1
102
RTVSPropertyOp21
 70
     1
102
RTVSPropertyOp22
 70
     1
102
RTVSPropertyOp23
 70
     1
102
RTVSPropertyOp24
 70
     1
102
RTVSPropertyOp25
 70
     1
102
RTVSPropertyOp26
 70
     1
102
RTVSPropertyOp27
 70
     1
102
RTVSPropertyOp28
 70
     1
102
RTVSPropertyOp29
 70
     1
102
RTVSPropertyOp30
 70
     1
102
RTVSPropertyOp31
 70
     1
102
RTVSPropertyOp32
 70
     1
102
RTVSPropertyOp33
 70
     1
102
RTVSPropertyOp34
 70
     1
102
RTVSPropertyOp35
 70
     1
102
RTVSPropertyOp36
 70
     1
102
RTVSPropertyOp37
 70
     1
102
RTVSPropertyOp38
 70
     1
102
RTVSPropertyOp39
 70
     1
102
RTVSPropertyOp40
 70
     1
102
RTVSPropertyOp41
 70
     1
102
RTVSPropertyOp42
 70
     1
102
RTVSPropertyOp43
 70
     1
102
RTVSPropertyOp44
 70
     1
102
RTVSPropertyOp45
 70
     1
102
RTVSPropertyOp46
 70
     1
102
RTVSPropertyOp47
 70
     1
102
RTVSPropertyOp48
 70
     1
102
RTVSPropertyOp49
 70
     1
102
RTVSPropertyOp50
 70
     1
102
RTVSPropertyOp51
 70
     0
102
RTVSPropertyOp52
 70
     0
102
RTVSPropertyOp53
 70
     1
102
RTVSPropertyOp54
 70
     1
102
RTVSPropertyOp55
 70
     1
102
RTVSPropertyOp56
 70
     1
102
RTVSPropertyOp57
 70
     1
102
RTVSPost2010Prop28
280
     0
102
RTVSPost2010PropOp28
 70
     1
102
RTVSPost2010Prop29
280
     1
102
RTVSPost2010PropOp29
 70
     1
102
RTVSPost2010Prop30
280
     1
102
RTVSPost2010PropOp30
 70
     1
102
RTVSPost2010Prop31
280
     0
102
RTVSPost2010PropOp31
 70
     1
102
RTVSPost2010Prop32
280
     0
102
RTVSPost2010PropOp32
 70
     1
102
RTVSPost2010Prop33
280
     0
102
RTVSPost2010PropOp33
 70
     1
102
RTVSPost2010Prop34
280
     0
102
RTVSPost2010PropOp34
 70
     1
102
RTVSPost2010Prop35
280
     0
102
RTVSPost2010PropOp35
 70
     1
102
RTVSPost2010Prop36
280
     0
102
RTVSPost2010PropOp36
 70
     1
102
RTVSPost2010Prop37
 90
       50
102
RTVSPost2010PropOp37
 70
     1
102
RTVSPost2010Prop38
140
0.0
102
RTVSPost2010PropOp38
 70
     1
102
RTVSPost2010Prop39
140
1.0
102
RTVSPost2010PropOp39
 70
     1
102
RTVSPost2010Prop40
 90
        0
102
RTVSPost2010PropOp40
 70
     1
102
RTVSPost2010Prop41ColorIndex
 90
       18
102
RTVSPost2010Prop41ColorRGB
 90
        0
102
RTVSPost2010PropOp41
 70
     1
102
RTVSPost2010Prop42
 90
       50
102
RTVSPost2010PropOp42
 70
     1
102
RTVSPost2010Prop43
 90
        3
102
RTVSPost2010PropOp43
 70
     1
102
RTVSPost2010Prop44ColorIndex
 90
        5
102
RTVSPost2010Prop44ColorRGB
 90
      255
102
RTVSPost2010PropOp44
 70
     1
102
RTVSPost2010Prop45
280
     0
102
RTVSPost2010PropOp45
 70
     1
102
RTVSPost2010Prop46
 90
       50
102
RTVSPost2010PropOp46
 70
     1
102
RTVSPost2010Prop47
 90
       50
102
RTVSPost2010PropOp47
 70
     1
102
RTVSPost2010Prop48
 90
       50
102
RTVSPost2010PropOp48
 70
     1
102
RTVSPost2010Prop49
280
     0
102
RTVSPost2010PropOp49
 70
     1
102
RTVSPost2010Prop50
 90
       50
102
RTVSPost2010PropOp50
 70
     1
102
RTVSPost2010Prop51ColorIndex
 90
      256
102
RTVSPost2010Prop51ColorRGB
 90
-16777216
102
RTVSPost2010PropOp51
 70
     0
102
RTVSPost2010Prop52
140
1.0
102
RTVSPost2010PropOp52
 70
     0
102
RTVSPost2010Prop53
 90
        2
102
RTVSPost2010PropOp53
 70
     1
102
RTVSPost2010Prop54
  1
strokes_ogs.tif
102
RTVSPost2010PropOp54
 70
     1
102
RTVSPost2010Prop55
280
     0
102
RTVSPost2010PropOp55
 70
     1
102
RTVSPost2010Prop56
140
1.0
102
RTVSPost2010PropOp56
 70
     1
102
RTVSPost2010Prop57
140
1.0
102
RTVSPost2010PropOp57
 70
     1
  0
XRECORD
  5
AE
102
{ACAD_REACTORS
330
AD
102
}
330
AD
100
AcDbXrecord
280
     1
102
RTVSPropertyOp0
 70
     1
102
RTVSPropertyOp1
 70
     1
102
RTVSPropertyOp2
 70
     1
102
RTVSPropertyOp3
 70
     1
102
RTVSPropertyOp4
 70
     1
102
RTVSPropertyOp5
 70
     1
102
RTVSPropertyOp6
 70
     1
102
RTVSPropertyOp7
 70
     1
102
RTVSPropertyOp8
 70
     1
102
RTVSPropertyOp9
 70
     1
102
RTVSPropertyOp10
 70
     1
102
RTVSPropertyOp11
 70
     1
102
RTVSPropertyOp12
 70
     1
102
RTVSPropertyOp13
 70
     1
102
RTVSPropertyOp14
 70
     1
102
RTVSPropertyOp15
 70
     1
102
RTVSPropertyOp16
 70
     1
102
RTVSPropertyOp17
 70
     1
102
RTVSPropertyOp18
 70
     1
102
RTVSPropertyOp19
 70
     1
102
RTVSPropertyOp20
 70
     1
102
RTVSPropertyOp21
 70
     1
102
RTVSPropertyOp22
 70
     1
102
RTVSPropertyOp23
 70
     1
102
RTVSPropertyOp24
 70
     1
102
RTVSPropertyOp25
 70
     1
102
RTVSPropertyOp26
 70
     1
102
RTVSPropertyOp27
 70
     1
102
RTVSPropertyOp28
 70
     1
102
RTVSPropertyOp29
 70
     1
102
RTVSPropertyOp30
 70
     1
102
RTVSPropertyOp31
 70
     1
102
RTVSPropertyOp32
 70
     1
102
RTVSPropertyOp33
 70
     1
102
RTVSPropertyOp34
 70
     1
102
RTVSPropertyOp35
 70
     1
102
RTVSPropertyOp36
 70
     1
102
RTVSPropertyOp37
 70
     1
102
RTVSPropertyOp38
 70
     1
102
RTVSPropertyOp39
 70
     1
102
RTVSPropertyOp40
 70
     1
102
RTVSPropertyOp41
 70
     1
102
RTVSPropertyOp42
 70
     1
102
RTVSPropertyOp43
 70
     1
102
RTVSPropertyOp44
 70
     1
102
RTVSPropertyOp45
 70
     1
102
RTVSPropertyOp46
 70
     1
102
RTVSPropertyOp47
 70
     1
102
RTVSPropertyOp48
 70
     1
102
RTVSPropertyOp49
 70
     1
102
RTVSPropertyOp50
 70
     1
102
RTVSPropertyOp51
 70
     0
102
RTVSPropertyOp52
 70
     0
102
RTVSPropertyOp53
 70
     1
102
RTVSPropertyOp54
 70
     1
102
RTVSPropertyOp55
 70
     1
102
RTVSPropertyOp56
 70
     1
102
RTVSPropertyOp57
 70
     1
102
RTVSPost2010Prop28
280
     0
102
RTVSPost2010PropOp28
 70
     1
102
RTVSPost2010Prop29
280
     1
102
RTVSPost2010PropOp29
 70
     1
102
RTVSPost2010Prop30
280
     1
102
RTVSPost2010PropOp30
 70
     1
102
RTVSPost2010Prop31
280
     0
102
RTVSPost2010PropOp31
 70
     1
102
RTVSPost2010Prop32
280
     0
102
RTVSPost2010PropOp32
 70
     1
102
RTVSPost2010Prop33
280
     0
102
RTVSPost2010PropOp33
 70
     1
102
RTVSPost2010Prop34
280
     0
102
RTVSPost2010PropOp34
 70
     1
102
RTVSPost2010Prop35
280
     0
102
RTVSPost2010PropOp35
 70
     1
102
RTVSPost2010Prop36
280
     0
102
RTVSPost2010PropOp36
 70
     1
102
RTVSPost2010Prop37
 90
       50
102
RTVSPost2010PropOp37
 70
     1
102
RTVSPost2010Prop38
140
0.0
102
RTVSPost2010PropOp38
 70
     1
102
RTVSPost2010Prop39
140
1.0
102
RTVSPost2010PropOp39
 70
     1
102
RTVSPost2010Prop40
 90
        0
102
RTVSPost2010PropOp40
 70
     1
102
RTVSPost2010Prop41ColorIndex
 90
       18
102
RTVSPost2010Prop41ColorRGB
 90
        0
102
RTVSPost2010PropOp41
 70
     1
102
RTVSPost2010Prop42
 90
       50
102
RTVSPost2010PropOp42
 70
     1
102
RTVSPost2010Prop43
 90
        3
102
RTVSPost2010PropOp43
 70
     1
102
RTVSPost2010Prop44ColorIndex
 90
        5
102
RTVSPost2010Prop44ColorRGB
 90
      255
102
RTVSPost2010PropOp44
 70
     1
102
RTVSPost2010Prop45
280
     0
102
RTVSPost2010PropOp45
 70
     1
102
RTVSPost2010Prop46
 90
       50
102
RTVSPost2010PropOp46
 70
     1
102
RTVSPost2010Prop47
 90
       50
102
RTVSPost2010PropOp47
 70
     1
102
RTVSPost2010Prop48
 90
       50
102
RTVSPost2010PropOp48
 70
     1
102
RTVSPost2010Prop49
280
     0
102
RTVSPost2010PropOp49
 70
     1
102
RTVSPost2010Prop50
 90
       50
102
RTVSPost2010PropOp50
 70
     1
102
RTVSPost2010Prop51ColorIndex
 90
      256
102
RTVSPost2010Prop51ColorRGB
 90
-16777216
102
RTVSPost2010PropOp51
 70
     0
102
RTVSPost2010Prop52
140
1.0
102
RTVSPost2010PropOp52
 70
     0
102
RTVSPost2010Prop53
 90
        2
102
RTVSPost2010PropOp53
 70
     1
102
RTVSPost2010Prop54
  1
strokes_ogs.tif
102
RTVSPost2010PropOp54
 70
     1
102
RTVSPost2010Prop55
280
     0
102
RTVSPost2010PropOp55
 70
     1
102
RTVSPost2010Prop56
140
1.0
102
RTVSPost2010PropOp56
 70
     1
102
RTVSPost2010Prop57
140
1.0
102
RTVSPost2010PropOp57
 70
     1
  0
XRECORD
  5
A0
102
{ACAD_REACTORS
330
9F
102
}
330
9F
100
AcDbXrecord
280
     1
102
RTVSPropertyOp0
 70
     1
102
RTVSPropertyOp1
 70
     1
102
RTVSPropertyOp2
 70
     1
102
RTVSPropertyOp3
 70
     1
102
RTVSPropertyOp4
 70
     1
102
RTVSPropertyOp5
 70
     1
102
RTVSPropertyOp6
 70
     1
102
RTVSPropertyOp7
 70
     1
102
RTVSPropertyOp8
 70
     1
102
RTVSPropertyOp9
 70
     1
102
RTVSPropertyOp10
 70
     1
102
RTVSPropertyOp11
 70
     1
102
RTVSPropertyOp12
 70
     1
102
RTVSPropertyOp13
 70
     1
102
RTVSPropertyOp14
 70
     1
102
RTVSPropertyOp15
 70
     1
102
RTVSPropertyOp16
 70
     1
102
RTVSPropertyOp17
 70
     1
102
RTVSPropertyOp18
 70
     1
102
RTVSPropertyOp19
 70
     1
102
RTVSPropertyOp20
 70
     1
102
RTVSPropertyOp21
 70
     1
102
RTVSPropertyOp22
 70
     1
102
RTVSPropertyOp23
 70
     1
102
RTVSPropertyOp24
 70
     1
102
RTVSPropertyOp25
 70
     1
102
RTVSPropertyOp26
 70
     1
102
RTVSPropertyOp27
 70
     1
102
RTVSPropertyOp28
 70
     1
102
RTVSPropertyOp29
 70
     1
102
RTVSPropertyOp30
 70
     1
102
RTVSPropertyOp31
 70
     1
102
RTVSPropertyOp32
 70
     1
102
RTVSPropertyOp33
 70
     1
102
RTVSPropertyOp34
 70
     1
102
RTVSPropertyOp35
 70
     1
102
RTVSPropertyOp36
 70
     1
102
RTVSPropertyOp37
 70
     1
102
RTVSPropertyOp38
 70
     1
102
RTVSPropertyOp39
 70
     1
102
RTVSPropertyOp40
 70
     1
102
RTVSPropertyOp41
 70
     1
102
RTVSPropertyOp42
 70
     1
102
RTVSPropertyOp43
 70
     1
102
RTVSPropertyOp44
 70
     1
102
RTVSPropertyOp45
 70
     1
102
RTVSPropertyOp46
 70
     1
102
RTVSPropertyOp47
 70
     1
102
RTVSPropertyOp48
 70
     1
102
RTVSPropertyOp49
 70
     1
102
RTVSPropertyOp50
 70
     1
102
RTVSPropertyOp51
 70
     0
102
RTVSPropertyOp52
 70
     0
102
RTVSPropertyOp53
 70
     1
102
RTVSPropertyOp54
 70
     1
102
RTVSPropertyOp55
 70
     1
102
RTVSPropertyOp56
 70
     1
102
RTVSPropertyOp57
 70
     1
102
RTVSPost2010Prop28
280
     0
102
RTVSPost2010PropOp28
 70
     1
102
RTVSPost2010Prop29
280
     1
102
RTVSPost2010PropOp29
 70
     1
102
RTVSPost2010Prop30
280
     1
102
RTVSPost2010PropOp30
 70
     1
102
RTVSPost2010Prop31
280
     0
102
RTVSPost2010PropOp31
 70
     1
102
RTVSPost2010Prop32
280
     0
102
RTVSPost2010PropOp32
 70
     1
102
RTVSPost2010Prop33
280
     0
102
RTVSPost2010PropOp33
 70
     1
102
RTVSPost2010Prop34
280
     0
102
RTVSPost2010PropOp34
 70
     1
102
RTVSPost2010Prop35
280
     0
102
RTVSPost2010PropOp35
 70
     1
102
RTVSPost2010Prop36
280
     0
102
RTVSPost2010PropOp36
 70
     1
102
RTVSPost2010Prop37
 90
       50
102
RTVSPost2010PropOp37
 70
     1
102
RTVSPost2010Prop38
140
0.0
102
RTVSPost2010PropOp38
 70
     1
102
RTVSPost2010Prop39
140
1.0
102
RTVSPost2010PropOp39
 70
     1
102
RTVSPost2010Prop40
 90
        0
102
RTVSPost2010PropOp40
 70
     1
102
RTVSPost2010Prop41ColorIndex
 90
       18
102
RTVSPost2010Prop41ColorRGB
 90
        0
102
RTVSPost2010PropOp41
 70
     1
102
RTVSPost2010Prop42
 90
       50
102
RTVSPost2010PropOp42
 70
     1
102
RTVSPost2010Prop43
 90
        3
102
RTVSPost2010PropOp43
 70
     1
102
RTVSPost2010Prop44ColorIndex
 90
        5
102
RTVSPost2010Prop44ColorRGB
 90
      255
102
RTVSPost2010PropOp44
 70
     1
102
RTVSPost2010Prop45
280
     0
102
RTVSPost2010PropOp45
 70
     1
102
RTVSPost2010Prop46
 90
       50
102
RTVSPost2010PropOp46
 70
     1
102
RTVSPost2010Prop47
 90
       50
102
RTVSPost2010PropOp47
 70
     1
102
RTVSPost2010Prop48
 90
       50
102
RTVSPost2010PropOp48
 70
     1
102
RTVSPost2010Prop49
280
     0
102
RTVSPost2010PropOp49
 70
     1
102
RTVSPost2010Prop50
 90
       50
102
RTVSPost2010PropOp50
 70
     1
102
RTVSPost2010Prop51ColorIndex
 90
      256
102
RTVSPost2010Prop51ColorRGB
 90
-16777216
102
RTVSPost2010PropOp51
 70
     0
102
RTVSPost2010Prop52
140
1.0
102
RTVSPost2010PropOp52
 70
     0
102
RTVSPost2010Prop53
 90
        2
102
RTVSPost2010PropOp53
 70
     1
102
RTVSPost2010Prop54
  1
strokes_ogs.tif
102
RTVSPost2010PropOp54
 70
     1
102
RTVSPost2010Prop55
280
     0
102
RTVSPost2010PropOp55
 70
     1
102
RTVSPost2010Prop56
140
1.0
102
RTVSPost2010PropOp56
 70
     1
102
RTVSPost2010Prop57
140
1.0
102
RTVSPost2010PropOp57
 70
     1
  0
XRECORD
  5
C0
102
{ACAD_REACTORS
330
BF
102
}
330
BF
100
AcDbXrecord
280
     1
102
RTVSPropertyOp0
 70
     1
102
RTVSPropertyOp1
 70
     1
102
RTVSPropertyOp2
 70
     1
102
RTVSPropertyOp3
 70
     1
102
RTVSPropertyOp4
 70
     1
102
RTVSPropertyOp5
 70
     1
102
RTVSPropertyOp6
 70
     1
102
RTVSPropertyOp7
 70
     1
102
RTVSPropertyOp8
 70
     1
102
RTVSPropertyOp9
 70
     1
102
RTVSPropertyOp10
 70
     1
102
RTVSPropertyOp11
 70
     1
102
RTVSPropertyOp12
 70
     1
102
RTVSPropertyOp13
 70
     1
102
RTVSPropertyOp14
 70
     1
102
RTVSPropertyOp15
 70
     1
102
RTVSPropertyOp16
 70
     1
102
RTVSPropertyOp17
 70
     1
102
RTVSPropertyOp18
 70
     1
102
RTVSPropertyOp19
 70
     1
102
RTVSPropertyOp20
 70
     1
102
RTVSPropertyOp21
 70
     1
102
RTVSPropertyOp22
 70
     1
102
RTVSPropertyOp23
 70
     1
102
RTVSPropertyOp24
 70
     1
102
RTVSPropertyOp25
 70
     1
102
RTVSPropertyOp26
 70
     1
102
RTVSPropertyOp27
 70
     1
102
RTVSPropertyOp28
 70
     1
102
RTVSPropertyOp29
 70
     1
102
RTVSPropertyOp30
 70
     1
102
RTVSPropertyOp31
 70
     1
102
RTVSPropertyOp32
 70
     1
102
RTVSPropertyOp33
 70
     1
102
RTVSPropertyOp34
 70
     1
102
RTVSPropertyOp35
 70
     1
102
RTVSPropertyOp36
 70
     1
102
RTVSPropertyOp37
 70
     1
102
RTVSPropertyOp38
 70
     1
102
RTVSPropertyOp39
 70
     1
102
RTVSPropertyOp40
 70
     1
102
RTVSPropertyOp41
 70
     1
102
RTVSPropertyOp42
 70
     1
102
RTVSPropertyOp43
 70
     1
102
RTVSPropertyOp44
 70
     1
102
RTVSPropertyOp45
 70
     1
102
RTVSPropertyOp46
 70
     1
102
RTVSPropertyOp47
 70
     1
102
RTVSPropertyOp48
 70
     1
102
RTVSPropertyOp49
 70
     1
102
RTVSPropertyOp50
 70
     1
102
RTVSPropertyOp51
 70
     0
102
RTVSPropertyOp52
 70
     0
102
RTVSPropertyOp53
 70
     1
102
RTVSPropertyOp54
 70
     1
102
RTVSPropertyOp55
 70
     1
102
RTVSPropertyOp56
 70
     1
102
RTVSPropertyOp57
 70
     1
102
RTVSPost2010Prop28
280
     0
102
RTVSPost2010PropOp28
 70
     1
102
RTVSPost2010Prop29
280
     1
102
RTVSPost2010PropOp29
 70
     1
102
RTVSPost2010Prop30
280
     1
102
RTVSPost2010PropOp30
 70
     1
102
RTVSPost2010Prop31
280
     0
102
RTVSPost2010PropOp31
 70
     1
102
RTVSPost2010Prop32
280
     0
102
RTVSPost2010PropOp32
 70
     1
102
RTVSPost2010Prop33
280
     0
102
RTVSPost2010PropOp33
 70
     1
102
RTVSPost2010Prop34
280
     0
102
RTVSPost2010PropOp34
 70
     1
102
RTVSPost2010Prop35
280
     0
102
RTVSPost2010PropOp35
 70
     1
102
RTVSPost2010Prop36
280
     0
102
RTVSPost2010PropOp36
 70
     1
102
RTVSPost2010Prop37
 90
       50
102
RTVSPost2010PropOp37
 70
     1
102
RTVSPost2010Prop38
140
0.0
102
RTVSPost2010PropOp38
 70
     1
102
RTVSPost2010Prop39
140
1.0
102
RTVSPost2010PropOp39
 70
     1
102
RTVSPost2010Prop40
 90
        0
102
RTVSPost2010PropOp40
 70
     1
102
RTVSPost2010Prop41ColorIndex
 90
       18
102
RTVSPost2010Prop41ColorRGB
 90
        0
102
RTVSPost2010PropOp41
 70
     1
102
RTVSPost2010Prop42
 90
       50
102
RTVSPost2010PropOp42
 70
     1
102
RTVSPost2010Prop43
 90
        3
102
RTVSPost2010PropOp43
 70
     1
102
RTVSPost2010Prop44ColorIndex
 90
        5
102
RTVSPost2010Prop44ColorRGB
 90
      255
102
RTVSPost2010PropOp44
 70
     1
102
RTVSPost2010Prop45
280
     0
102
RTVSPost2010PropOp45
 70
     1
102
RTVSPost2010Prop46
 90
       50
102
RTVSPost2010PropOp46
 70
     1
102
RTVSPost2010Prop47
 90
       50
102
RTVSPost2010PropOp47
 70
     1
102
RTVSPost2010Prop48
 90
       50
102
RTVSPost2010PropOp48
 70
     1
102
RTVSPost2010Prop49
280
     0
102
RTVSPost2010PropOp49
 70
     1
102
RTVSPost2010Prop50
 90
       50
102
RTVSPost2010PropOp50
 70
     1
102
RTVSPost2010Prop51ColorIndex
 90
      256
102
RTVSPost2010Prop51ColorRGB
 90
-16777216
102
RTVSPost2010PropOp51
 70
     0
102
RTVSPost2010Prop52
140
1.0
102
RTVSPost2010PropOp52
 70
     0
102
RTVSPost2010Prop53
 90
        2
102
RTVSPost2010PropOp53
 70
     1
102
RTVSPost2010Prop54
  1
strokes_ogs.tif
102
RTVSPost2010PropOp54
 70
     1
102
RTVSPost2010Prop55
280
     0
102
RTVSPost2010PropOp55
 70
     1
102
RTVSPost2010Prop56
140
1.0
102
RTVSPost2010PropOp56
 70
     1
102
RTVSPost2010Prop57
140
1.0
102
RTVSPost2010PropOp57
 70
     1
  0
ENDSEC
  0
EOF
